Taking Back Sunday - The Ballad Of Sal Villanueva Chords & Tabs

 

The Ballad Of Sal Villanueva Chords & Tabs

Taking Back Sunday Chords & Tabs

Version: 3 Type: Tab 0 ratings
1 star 2 stars 3 stars 4 stars 5 stars
comments

The Ballad Of Sal Villanueva Tab

Intro
e|-------------------------------------------------------------------------|
B|-------------------9-9---------------------------------------------------|
G|-9-9-9--9-9-9--9-9-9-9-9-9-9---4-4-4-4---2-2-2-2-------------------------|
D|-6-6-6--9-9-9--9-9-9-9-9-9-9---4-4-4-4---2-2-2-2---7-7-7-7-7-------------|
A|-7-7-7--9-9-9--7-7-7-7-7-7-7---2-2-2-2---0-0-0-0---7-7-7-7-7-------------|
E|---------------------------------------------------5-5-5-5-5-------------|

Verse
e|-------------------------------------------------------------------------|
B|-------------------------------------------------------------------------|
G|-9-9-9-9-9-9-9---4-4-4-4-4-4---------------------------------------------|
D|-9-9-9-9-9-9-9---4-4-4-4-4-4--7-7-7-7-7-7--------------------------------|
A|-7-7-7-7-7-7-7---2-2-2-2-2-2--7-7-7-7-7-7--------------------------------|
E|-0-0-0-0-0-0-0----------------5-5-5-5-5-5--------------------------------|
[ Tab from: http://www.guitartabs.cc/tabs/t/taking_back_sunday/the_ballad_of_sal_villanueva_tab_ver_3.html ]
Chorus
e|-------------------------------------------------------------------------|
B|-------------------------------------------------------------------------|
G|-------------------------------------------------------------------------|
D|-2-2-2-2-2-2-2---7-7-7-7-7-7-7-------------------------------------------|
A|-2-2-2-2-2-2-2---7-7-7-7-7-7-7-------------------------------------------|
E|-0-0-0-0-0-0-0---5-5-5-5-5-5-5-------------------------------------------|

Bridge
e|-------------------------------------------------------------------------|
B|-------------------------------------------------------------------------|
G|-------------------------------------------------------------------------|
D|-2-2-2-2---6-6-6-6--4-4-4-4--7-7-7-7-7-----------------------------------|
A|-2-2-2-2---6-6-6-6--4-4-4-4--7-7-7-7-7-----------------------------------|
E|-0-0-0-0---4-4-4-4--2-2-2-2--5-5-5-5-5-----------------------------------|

Outro
e|-------------------------------------------------------------------------|
B|-------------------------------------------------------------------------|
G|-------------------------------------------------------------------------|
D|-2-2-2-2-2------------------2--------------------------------------------|
A|-2-2-2-2-2----for a while---2--------------------------------------------|
E|-0-0-0-0-0------------------0--------------------------------------------|
Comments