Taking Back Sunday - The Ballad Of Sal Villanueva Chords & Tabs

 

The Ballad Of Sal Villanueva Chords & Tabs

Taking Back Sunday Chords & Tabs

Version: 1 Type: Tab 0 ratings
1 star 2 stars 3 stars 4 stars 5 stars
comments

The Ballad Of Sal Villanueva Tab

I think this is how the song goes. The strumming is a bit tricky at the
beginning. I didnt' tab any of the strumming, just the chords. I hope its
not too hard to read.

Intro:
--------------------------
--0-0---------------------
--4-2---------------------
--6-4---------------------
--x-x---------------------
--0-0---------------------

The minute the singing starts then: verse:x2
------------------------0-------------------------
--0--0--0---------------2-x-----------------------
--4--4--2-(gets loud)---2-x-----------------------
--6--4--2---------------2-x-----------------------
--x--2--4---------------0-x-----------------------
--0-----------------------------------------------

Chorus:x2
------0--|------------------------
-0----2--|------------------------
-1----2--|-1----------------------
-2----2--|-2(let ring)------------
-2----0--|-2----------------------
-0-------|------------------------
[ Tab from: http://www.guitartabs.cc/tabs/t/taking_back_sunday/the_ballad_of_sal_villanueva_tab.html ]
Verse Two: base until "youve got your high..."
--------0--------------------------
--0--0--2--x------------------------
--4--2--2--x------------------------
--4--2--2--x------------------------
--2--4--0--x------------------------
---------------------------------

Chorus x2
But second time around, Second Guitar plays in the back:
---------------------------------------------------
---------------------------------------------------
---------------------------------------------------
---------------------------------------------------
--4-6-7--------------------------------------------
---------------------------------------------------

Piano part for Guitar:
----------------------------------------------------
----------------------------------------------------
--9-11-8-13-11-13-9--99-8-8-9----14-13-99-----------
-------------------------9---9----------------------
----------------------------------------------------
----------------------------------------------------

Everything Else:
------------------------
----0-------------------
----1----4----2----6----
----2----6----4----7----
----2----6----4----7----
----0----4----2----5----

End on:
----
----
-1--
-2--(don't let it ring)
-2--
-0--
Comments