Taking Back Sunday - Summer Stars Chords & Tabs

 

Summer Stars Chords & Tabs

Taking Back Sunday Chords & Tabs

Version: 1 Type: Tab 0 ratings
1 star 2 stars 3 stars 4 stars 5 stars
comments

Summer Stars Tab

Taking Back Sunday - Summer Stars

i couldnt find tabs for this anywhere so i tried figuring it out 
it sounds right to me, enjoy 

e--------------------------- 
B--------------------------- 
G--3/5/3---3-3-3-5-5-5------ 
D--x-x-x---x-x-x-x-x-x------ 
A--3/5/3---1-1-1-3-3-3------ intro / verse 
D--------------------------- 
he ends it with 8 then 7 one time in the second verse i think 

[ Tab from: http://www.guitartabs.cc/tabs/t/taking_back_sunday/summer_stars_tab.html ]
e--------------------------- 
B--------------------------- 
G--------------------------- 
D--3--0--8--7--------------- chords to the chorus 
A--3--0--8--7--------------- the strumming is super easy 
D--3--0--8--7--------------- you can figure it out 

e----------------------------------------- 
B----------------------------------------- 
G----12-10-9--7-9-10---------------------- 
D----------------------------------------- 
A----------------------------------------- 
D----------------------------------------- 
this is played over the chorus at the end of the song 
there is more to it but this is just the main part 
i couldnt hear the rest very well so i didnt even bother to figure it out 

this is pretty much the whole song i left some stuff out but if youre just
playing it for fun or whatever the rest dosent even matter. its fun to play
and sing with your friends. keep rockin.
Comments