Taking Back Sunday - Spin Chords & Tabs

 

Spin Chords & Tabs

Taking Back Sunday Chords & Tabs

Version: 2 Type: Tab

Spin Tab

   
Artist: Taking Back Sunday
Song: Spin(Intro)
Album: Louder Now
Tuning: Half Step Down(Eb,Ab,Db,Gb,Bb,Eb)

Okay, so the other tab for this is pretty good,
and I give the credit to yourxtragedy for figuring
it out, but there is a much easier way to play 
that intro. It goes a little something like this.

<#> - Natural Harmonic
[ Tab from: http://www.guitartabs.cc/tabs/t/taking_back_sunday/spin_tab_ver_2.html ]
Eb--<24>-------------------------------------------------|x2
Bb------<24>-----<19>------------------------------------|
Gb----------<24>----<19>---------------------------------|
Db-------------------------------------------------------|
Ab-------------------------------------------------------|
Eb-------------------------------------------------------|
                      x3
Eb-----12--------------|---------------------------------|play
Bb---12--12-15p12------|---------------------------------|this
Gb-14------------14p12-|-14h16p14p12h14p12-11------------|whole
Db---------------------|---------------------------------|thing
Ab---------------------|---------------------------------|twice
Eb---------------------|---------------------------------|


Might as well include the variation for the bridge too...
Eb-----12----------12--------12--------------------------|
Bb---12--12-15p12------15--12----15p12-------------------|
Gb-14------------14--14--14----14------------------------|
Db-------------------------------------------------------|
Ab-------------------------------------------------------|
Eb-------------------------------------------------------|

And there you have it. I find that version
much easier to play than the other one.
Anything to say to me, send to SaintJimmy105@yahoo.com
Thanks, and please rate it.