Taking Back Sunday - Slowdance On The Inside Chords & Tabs

 

Slowdance On The Inside Chords & Tabs

Taking Back Sunday Chords & Tabs

Version: 4 Type: Tab 0 ratings
1 star 2 stars 3 stars 4 stars 5 stars
comments

Slowdance On The Inside Tab

   
===============================================================================
		Slowdance on the Inside - Taking Back Sunday
===============================================================================
Tabbed by: Tim Doyle
Email: Mog416@gmail.com

Tuning: Standard

INTRO/VERSE 1

Guitar 1
Keep steady
e|---------------------------------------------------------------------------|
B|---------------------------------------------------------------------------|
G|-77777777777777------------------------------------------------------------|
D|-xxxxxxxxxxxxxx------------------------------------------------------------|
A|-55555555555555------------------------------------------------------------|
E|---------------------------------------------------------------------------|

then Guitar 2 comes in with this while Guitar 1 keeps going

e|---------------------------------------------------------------------------|
B|---------------------------------------------------------------------------|
G|---------------------------------------------------------------------------|
D|---55555555555555----------------------------------------------------------|
A|---xxxxxxxxxxxxxx----------------------------------------------------------|
E|-0-33333333333333----------------------------------------------------------|

After this, Guitar 2 joins Guitar 1 with the 7-x-5, then goes to 5-x-3 when the
time comes, just listen for it.

PRE-CHORUS

e|---------------------------------------------------------------------------|
B|---(pick slide)------------------------------------------------------------|
G|-7~--7/--7-7---------------------------------------------------------------|
D|-7~--7/--7-7---------------------------------------------------------------|
A|-5~--7/--5-5---------------------------------------------------------------|
E|---------------------------------------------------------------------------|

CHORUS
"Well cross my heart and hope to..."
e|---------------------------------------------------------------------------|
B|---------------------------------------------------------------------------|
G|-77777777777777-------------------44444444444444---------------------------|
D|-44444444444444---55555555555555--44444444444444--55555555555555-----------| x2
A|-55555555555555---55555555555555--22222222222222--55555555555555-----------|
E|----------------0-33333333333333------------------33333333333333-----------|

VERSE 2

Guitar 1 only

e|---------------------------------------------------------------------------|
B|---------------------------------------------------------------------------|
G|------------------------------------------7--------------------------------|
D|-4h5p4h5p4h5p4h5p4--4-5-7-4-5-7-4-5-4h5p4---5------------------------------|
A|(hammer/pull off----*-*-*-*-*-*-*-*----------------------------------------|
E|a couple of times)---------------------------------------------------------|
[ Tab from: http://www.guitartabs.cc/tabs/t/taking_back_sunday/slowdance_on_the_inside_tab_ver_4.html ]
e|---------------------------------------------------------------------------|
B|---------------------------------------------------------------------------|
G|------------------------------------------------7--------------------------|
D|-4h5p4h5p4h5p4--2~-2-2/4--4-5-7-4-5-7-4-5-4h5p4---5------------------------|
A|---------------------------------------------------------------------------|
E|---------------------------------------------------------------------------|

e|---------------------------------------------------------------------------|
B|------------7~\3----------------7~\3---------------------------------------|
G|-4~-----6-7-----------4~----6-7--------------------------------------------|
D|---4h5------------4h5---4h5------------------------------------------------|
A|---------------------------------------------------------------------------|
E|---------------------------------------------------------------------------|

PRE-CHORUS
"Don't you ask me..."
e|---------------------------------------------------------------------------|
B|---(pick slide)------------------------------------------------------------|
G|-7~--7/--7-7---------------------------------------------------------------|
D|-7~--7/--7-7---------------------------------------------------------------|
A|-5~--7/--5-5---------------------------------------------------------------|
E|---------------------------------------------------------------------------|

CHORUS
"Well cross my heart and hope to..."
e|---------------------------------------------------------------------------|
B|---------------------------------------------------------------------------|
G|-77777777777777-------------------44444444444444---------------------------|
D|-44444444444444---55555555555555--44444444444444--55555555555555-----------| x4
A|-55555555555555---55555555555555--22222222222222--55555555555555-----------|
E|----------------0-33333333333333------------------33333333333333-----------|

BREAK

e|---------------------------------------------------------------------------|
B|---------------------------------------------------------------------------|
G|---------------------------------------------------------------------------|
D|-55-55-55------------------------------------------------------------------|
A|-55-55-55------------------------------------------------------------------|
E|-33-33-33------------------------------------------------------------------|

CHORUS
"This glass house is burning down..."
e|---------------------------------------------------------------------------|
B|---------------------------------------------------------------------------|
G|-77777777777777-------------------44444444444444---------------------------|
D|-44444444444444---55555555555555--44444444444444--55555555555555-----------| x2
A|-55555555555555---55555555555555--22222222222222--55555555555555-----------|
E|----------------0-33333333333333------------------33333333333333-----------|

back to the BREAK
Then end on this:

e|---------------------------------------------------------------------------|
B|---------------------------------------------------------------------------|
G|-7~------------------------------------------------------------------------|
D|-7~------------------------------------------------------------------------|
A|-5~------------------------------------------------------------------------|
E|---------------------------------------------------------------------------|

Notes:
| /  slide up
| \  slide down
| h  hammer-on
| p  pull-off
| ~  let ring
| *  slight palm mute
| x  Mute note
===============================================================================
Comments