Taking Back Sunday - One-eighty By Summer Chords & Tabs

 

One-eighty By Summer Chords & Tabs

Taking Back Sunday Chords & Tabs

Version: 2 Type: Bass Tab 0 ratings
1 star 2 stars 3 stars 4 stars 5 stars
comments

One-eighty By Summer Bass Tab

   

-------------------------------------------------------------------------------
			     One-Eighty by Summer - Taking Back Sunday
-------------------------------------------------------------------------------

One of my favorite taking back sunday songs the other tab doesn't seem right to me

Tabbed By : Chris Appleby
e-mail: 

Tuning: e A D G


Slide up:/
Slide down:\
Pull off:p

           intro/chorus riff
G|------------------------------------------------------------------------|
D|------------------------------------------------------------------------|
A|-----------------------------5-5555p0-2-2222p0--2-2222p0----------------|
E|----------------12/---0000023--------3--------3---------3---------------|
  Go on just....
[ Tab from: http://www.guitartabs.cc/tabs/t/taking_back_sunday/one_eighty_by_summer_btab_ver_2.html ]
           verse
G|----------------------------------------|
D|----------------------------------------|
A|-3-3-------------77------2-2-----3-3----|
E|--3----------------0------3-------3-----|
     Well I hold...
               
           pre-chorus
G|-------------------------------------------------------------------------|
D|-------------------------------------------------------------------------|
A|-3-3--3333--------------77---7777-------2-2--2222-------3-3--3333--------|
E|--3-----------------------0--------------3---------------3---------------|
  And I don't think...

           bridge
G|-------------------------------------------------------------------------|
D|-------------------------------------------------------------------------|
A|---22222222222222220000000000000000--------------------------------------|
E|-----------------------------------3333333333333333----------------------|

Well thats how i play it and it sounds fine. Hope you like the tab.

Chris
Comments