Taking Back Sunday - One-eighty By Summer Chords & Tabs

 

One-eighty By Summer Chords & Tabs

Taking Back Sunday Chords & Tabs

Version: 1 Type: Bass Tab 0 ratings
1 star 2 stars 3 stars 4 stars 5 stars
comments

One-eighty By Summer Bass Tab

Band: Taking Back Sunday
Title: One-Eighty By Summer
Album: Where You want To Be
Tabber: afirock74@hotmail.com

Intro:
G|--------------------------------------------------------------------|
D|----------5---5-7-------------5---5-7---------------5-------5-------|
A|------------------5-5-5-5-5-5---5-------3-3-3-3-3-3---3-3-3-3-3-3-3-|
E|-0--0-0-0---0-------------------------------------------------------|

Verse:
G|-----------------------------|
D|---------2-2-2---------------|
A|--3-3-3--------2-2-2--3-3-3--|
E|-----------------------------|
[ Tab from: http://www.guitartabs.cc/tabs/t/taking_back_sunday/one_eighty_by_summer_btab.html ]
Pre-Chorus:
G|----------------------------------------------------------------------|
D|------------------2-2-2-2-2-2-2-2-2-----------------------------------|
A|--3-3-3-3-3-3-3-3--------------------2-2-2-2-2-2-2-2--3-3-3-3-3-3-3-3-|
E|----------------------------------------------------------------------|

Chorus:
G|--------------------------------------------------------------------|
D|----------5---5-7-------------5---5-7---------------5-------5-------|
A|------------------5-5-5-5-5-5---5-------3-3-3-3-3-3---3-3-3-3-3-3-3-|
E|-0--0-0-0---0-------------------------------------------------------|

Bridge:
G|-----------------------------------------------------------------|
D|-----------------------------------------------------------------|
A|--3-3-3-3-3-3-3-3-3-3-3-3-3-3-3-3--0-0-0-0-0-0-0-0-0-0-0-0-0-0---|
E|-----------------------------------------------------------------|

G|---------------------------------|
D|---------------------------------|
A|---------------------------------|
E|--3-3-3-3-3-3-3-3-3-3-3-3-3-3----|
Comments