Taking Back Sunday - Number Five With A Bullet Chords & Tabs

 

Number Five With A Bullet Chords & Tabs

Taking Back Sunday Chords & Tabs

Version: 1 Type: Tab 0 ratings
1 star 2 stars 3 stars 4 stars 5 stars
comments

Number Five With A Bullet Tab

-----------------------------------------------------------------------------
"Number Five With a Bullet" - Taking Back Sunday
-----------------------------------------------------------------------------
Tabbed by: Bryan Reznicek
Email: reznicek@mchsi.com

Even though this is my first submission,
it sounds pretty accurate to me, only
part that I am not sure about...is the
"Chorus (lead guitar)" towards the end,
I think it's right, or at least close.

Intro 
|----------------------------------|
|----------------------------------|
|----------------------------------|
|-77777777777777776666666666666666-|
|-77777777777777777777777777777777-|
|-77777777777777776666666666666666-|

|----------------------------------|
|----------------------------------|
|----------------------------------|
|-00000000000000000000000000000000-| 
|-00000000000000000000000000000000-|
|-00000000000000000000000000000000-| 2x

Verse
|---------------------------------|
|---------------------------------|
|-44444444--------77777777--------|
|-44444444444444447777777777777777|
|-22222222444444445555555577777777|
|---------44444444--------77777777|

|---------------------------------|
|---------------------------------|
|-44444444--------7777777799999999|   
|-44444444444444447777777799999999|
|-22222222444444445555555577777777|
|---------44444444----------------|

Chorus
|----------------------------------|
|----------------------------------|
|----------------------------------|
|-77777777777777776666666666666666-|
|-77777777777777777777777777777777-|
|-77777777777777776666666666666666-|

|----------------------------------|
|----------------------------------|
|----------------------------------|
|-00000000000000000000000000000000-|
|-00000000000000000000000000000000-|
|-00000000000000000000000000000000-| 2x

Verse 2 (rhythm guitar) (part 1/2)
|---------------------------------|
|---------------------------------|
|-44444444--------77777777--------|
|-44444444444444447777777777777777| 2x then lead comes in
|-22222222444444445555555577777777|    repeat this once more
|---------44444444--------77777777|    then to part two

Verse 2 (lead guitar) (part 1/2)
|-----------------------------|
|-10-10-10-10-10-10-10/9-10/9-|
|--x--x--x--x--x--x--x-x--x-x-|
|--7--7--7--7--7--7--7/6--7/6-|
|-----------------------------|
|-----------------------------|
[ Tab from: http://www.guitartabs.cc/tabs/t/taking_back_sunday/number_five_with_a_bullet_tab.html ]
Verse 2 (rhythm guitar) (part 2/2)
|---------------------------------|
|---------------------------------|
|-44444444--------7777777799999999|
|-44444444444444447777777799999999|
|-22222222444444445555555577777777|
|---------44444444----------------|

Verse 2 (lead guitar) (part 2/2)
|-------------------------------------------------|
|-10-10-10-10-12-12-12-12-14-14-14-14-15-15-15-15-|
|--x--x--x--x--x--x--x--x--x--x--x--x--x--x--x--x-|
|--7--7--7--7--9--9--9--9-11-11-11-11-12-12-12-12-|
|-------------------------------------------------|
|-------------------------------------------------|

Chorus (rhythm guitar)
|----------------------------------|
|----------------------------------|
|----------------------------------|
|-77777777777777776666666666666666-|
|-77777777777777777777777777777777-|
|-77777777777777776666666666666666-|

|----------------------------------|
|----------------------------------|
|----------------------------------|
|-00000000000000000000000000000000-|	
|-00000000000000000000000000000000-|
|-00000000000000000000000000000000-| 2x

Chorus (lead guitar)
|-----------|
|-10-9----9-|
|------11---|
|-----------|
|-----------|
|-----------|

Interlude
|-----------------|
|--9--10-9-9-10-9-|
|-9--9--9-9-------|   
|-----------------|
|-----------------|
|-----------------| 4x

|---------------------------------|
|-10-9---10-9---------------------|
|------9------9---11-9--------9---| 
|----------------------7--6/7---7-|
|---------------------------------|
|---------------------------------| 2x

Verse 3
|----------------------------------|
|----------------------------------|
|----------------------------------|
|-77777777777777776666666666666666-|
|-77777777777777777777777777777777-|
|-77777777777777776666666666666666-|

|------------------------------------|
|------------------------------------|
|------------------------------------|
|-00000000000000000000000000000000--0|
|-00000000000000000000000000000000--0|
|-00000000000000000000000000000000--0|

Chorus (rhythm guitar)
|----------------------------------|
|----------------------------------|
|----------------------------------|
|-77777777777777776666666666666666-|
|-77777777777777777777777777777777-|
|-77777777777777776666666666666666-|

|----------------------------------|
|----------------------------------|
|----------------------------------|
|-00000000000000000000000000000000-|
|-00000000000000000000000000000000-|
|-00000000000000000000000000000000-| 4x

Chorus (lead guitar)
|-----------|
|-10-9----9-|
|------11---|
|-----------|
|-----------|
|-----------|

Outro
|-----------------------------|
|-----------------------------|
|-7-7-7-x-x-x-x-x-x-x-x-7-7-7-|
|-7-7-7-x-x-x-x-x-x-x-x-7-7-7-|
|-5-5-5-x-x-x-x-x-x-x-x-5-5-5-|
|-----------------------------|
Comments