Taking Back Sunday - New American Classic Chords & Tabs

 

New American Classic Chords & Tabs

Taking Back Sunday Chords & Tabs

Version: 7 Type: Tab 0 ratings
1 star 2 stars 3 stars 4 stars 5 stars
comments

New American Classic Tab

Tuning:
Guitar 1 Standard Tuning


INTRO
Guitar 1 (Finger picking)
E|---------------2~~~~~~--------|
B|-0~~~~~~~3----------3-5p0---3-|
G|-----------0------0-------5---|
D|-----0h4-----0-0~~~~~~--------|
A|----------------------3~~~~~~~|2x
E|-3~~~~~~~---------------------|


VERSE
Guitar 1 (Finger picking)
E|---------------2~~~~~~--------|
B|-0~~~~~~~3----------3-5p0---3-|
G|-----------0------0-------5---|
D|-----0h4-----0-0~~~~~~--------|
A|----------------------3~~~~~~~|4x
E|-3~~~~~~~---------------------|


     CHORUS
     Guitar 1
     E|-------------------------------2---2-2-2h3-3-3-2h3-3-3-3-3-3-|
     B|-0---0-0-0---0-0-0-0-0-0---0-0-0---0-0-0---0-0-0---0-0-0-0-0-|
     G|-0---0-0-0---0-0-0-0-0-0---0-0-0---0-0-0---0-0-0---0-0-0-0-0-|
     D|-x---x-x-x---x-x-x-0-0-0---0-0-0---0-0-0---0-0-0---0-0-0-0-0-|
     A|-3---3-3-3---3-3-3/5-5-5---5-5-x---x-x-x---x-x-x---x-x-x-x-x-|2x
     E|-------------------------------3---3-3-3---3-3-3---3-3-3-3-3-|

     
     Guitar 1
     E|-------------------------------2---2-2---------3---3-3-3-3-3-|
     B|-0---0-0-0---0-0-0-0-0-0---0-0-0---0-0-3---3-3-0---0-0-0-0-0-|
     G|-0---0-0-0---0-0-0-0-0-0---0-0-0---0-0-0---0-0-0---0-0-0-0-0-|
     D|-x---x-x-x---x-x-x-0-0-0---0-0-0---0-0-0---0-0-0---0-0-0-0-0-|
     A|-3---3-3-3---3-3-3/5-5-5---5-5-x---x-x-x---x-x-x---x-x-x-x-x-|1x
     E|-------------------------------3---3-3-3---3-3-3---3-3-3-3-3-|


INTRO
Guitar 1 (Finger picking)
E|---------------2~~~~~~--------|
B|-0~~~~~~~3----------3-5p0---3-|
G|-----------0------0-------5---|
D|-----0h4-----0-0~~~~~~--------|
A|----------------------3~~~~~~~|2x
E|-3~~~~~~~---------------------|


VERSE
Guitar 1 (Finger picking)
E|---------------2~~~~~~--------|
B|-0~~~~~~~3----------3-5p0---3-|
G|-----------0------0-------5---|
D|-----0h4-----0-0~~~~~~--------|
A|----------------------3~~~~~~~|4x
E|-3~~~~~~~---------------------|


     CHORUS
     Guitar 1
     E|-------------------------------2---2-2-2h3-3-3-2h3-3-3-3-3-3-|
     B|-0---0-0-0---0-0-0-0-0-0---0-0-0---0-0-0---0-0-0---0-0-0-0-0-|
     G|-0---0-0-0---0-0-0-0-0-0---0-0-0---0-0-0---0-0-0---0-0-0-0-0-|
     D|-x---x-x-x---x-x-x-0-0-0---0-0-0---0-0-0---0-0-0---0-0-0-0-0-|
     A|-3---3-3-3---3-3-3/5-5-5---5-5-x---x-x-x---x-x-x---x-x-x-x-x-|4x
     E|-------------------------------3---3-3-3---3-3-3---3-3-3-3-3-|


     Guitar 1
     E|-2---2-2---------3---3-3-3-3-3-2---2-2---------3---3-3-3-3-3-|
     B|-0---0-0-3---3-3-0---0-0-0-0-0-0---0-0-3---3-3-0---0-0-0-0-0-|
     G|-0---0-0-0---0-0-0---0-0-0-0-0-0---0-0-0---0-0-0---0-0-0-0-0-|
     D|-0---0-0-0---0-0-0---0-0-0-0-0-0---0-0-0---0-0-0---0-0-0-0-0-|
     A|-x---x-x-x---x-x-x---x-x-x-x-x-x---x-x-x---x-x-x---x-x-x-x-x-|2x
     E|-3---3-3-3---3-3-3---3-3-3-3-3-3---3-3-3---3-3-3---3-3-3-3-3-|

[ Tab from: http://www.guitartabs.cc/tabs/t/taking_back_sunday/new_american_classic_tab_ver_7.html ]
BRIDGE
Guitar 1 (Finger picking)
E|---0-0-0-----------0------------------------------------------------|
B|-3-----x---3---3-3-x---7\3-3---3-3-0h3-3-0h3-0-------0h3-0--3---3-3-|
G|-0---0-0---0-0---0-0---0~~~0---0-0-0~~~0--------------------0---0-0-|
D|-0-----0---0---0-0-0-------0---0-0-0~~~0-0~~~~~------0~~~~~-0---0-0-|
A|-x-----x---x-----x-x-------x---x-x-----x---------0----------x---x-x-|>
E|-3-----3---3-----3-3-------3---3-3-----3-3~~~~~3-----3~~~~~-3---3-3-|


(cont.)
E|-0~~~~~----------------------|
B|---5h6p5p3-5p3---3-3---3-3-3-|
G|---0-------------0-0---0-0-0-|
D|-----------------0-0---0-0-0-|
A|-----------------x-x---x-x-x-|1x
E|-3~~~~~----------3-3---3-3-3-|


(cont.)
E|-------------|   |-3-3-3h5p3---3---3-3-3---2h3p2-----3/5-5/7-7---|
B|-7~~~~p3~~~~~|   |-0-0-0---0---0---3-3-3---3-3-3-3---0~~~0~~~0~~~|
G|-------------|   |-0-0-0---0---0---0-0-0---0-0-0-0---0~~~0~~~0~~~|
D|-------------|   |-----0---0---0---0-0-0---0---0-0---------------|
A|-------------|7x |-----x-------x---x-x-x---x-----x---------------|>
E|-------------|   |-----3-------3---3-3-3---3-----3---------------|


(cont.)
E|-7---7-7/8---8-8---8p7-7---8p7-7-8p7-7-8p7-7-8p7-7-8p7-7-8p7-7-8p7-|
B|-------------------------------------------------------------------|
G|-------------------------------------------------------------------|
D|-------------------------------------------------------------------|
A|-------------------------------------------------------------------|>
E|-------------------------------------------------------------------|


(cont.)
E|----10----10----10----10----10----10----10----10-|
B|-7h8---7h8---7h8---7h8---7h8---7h8---7h8---7h8---|
G|-------------------------------------------------|
D|-------------------------------------------------|
A|-------------------------------------------------|1x
E|-------------------------------------------------|


     CHORUS
     Guitar 1
     E|-------------------------------2---2-2-2h3-3-3-2h3-3-3-3-3-3-|
     B|-0---0-0-0---0-0-0-0-0-0---0-0-0---0-0-0---0-0-0---0-0-0-0-0-|
     G|-0---0-0-0---0-0-0-0-0-0---0-0-0---0-0-0---0-0-0---0-0-0-0-0-|
     D|-x---x-x-x---x-x-x-0-0-0---0-0-0---0-0-0---0-0-0---0-0-0-0-0-|
     A|-3---3-3-3---3-3-3/5-5-5---5-5-x---x-x-x---x-x-x---x-x-x-x-x-|4x
     E|-------------------------------3---3-3-3---3-3-3---3-3-3-3-3-|


     Guitar 1
     E|-2---2-2---------3---3-3-3-3-3-2---2-2---------3---3-3-3-3-3-|
     B|-0---0-0-3---3-3-0---0-0-0-0-0-0---0-0-3---3-3-0---0-0-0-0-0-|
     G|-0---0-0-0---0-0-0---0-0-0-0-0-0---0-0-0---0-0-0---0-0-0-0-0-|
     D|-0---0-0-0---0-0-0---0-0-0-0-0-0---0-0-0---0-0-0---0-0-0-0-0-|
     A|-x---x-x-x---x-x-x---x-x-x-x-x-x---x-x-x---x-x-x---x-x-x-x-x-|2x
     E|-3---3-3-3---3-3-3---3-3-3-3-3-3---3-3-3---3-3-3---3-3-3-3-3-|


OUTTRO
Guitar 1 (Finger picking)
E|---------------2~~~~~~----------------------2~~~~~~--------------3~|
B|-0~~~~~~~3----------3-5p0---3-0~~~~~~~3----------3-5p0---3-------3~|
G|-----------0------0-------5-------------0------0-------5---5-4---0~|
D|-----0h4-----0-0~~~~~~------------0h4-----0-0~~~~~~--------------0~|
A|----------------------3~~~~~~~---------------------3~~~~~~~------2~|1x
E|-3~~~~~~~---------------------3~~~~~~~---------------------------3~|
Comments