Taking Back Sunday - New American Classic Chords & Tabs

 

New American Classic Chords & Tabs

Taking Back Sunday Chords & Tabs

Version: 5 Type: Tab 0 ratings
1 star 2 stars 3 stars 4 stars 5 stars
comments

New American Classic Tab

this is just a correction to the solo in the song. Most of the other tabs were
close but this ones 100%.It sounds really good if you alternate between up and
down strokes.   (u)=up stroke   for all the upstrokes Ill put a (u) under it.
for everthing else, its a downstroke

[ Tab from: http://www.guitartabs.cc/tabs/t/taking_back_sunday/new_american_classic_tab_ver_5.html ]
e--3~3p2-22---2-3/5-5-7-7--7-7--77h8-8-88p7-7-7--|
b--3~3---33p0-0-3/5-5-8-8--8-8--88---8-88---8-8--|
g--------(u)--------------------(u)----(u)-------|(u)
d------------------------------------------------|
a------------------------------------------------|
E------------------------------------------------|

e--8p7-7--|       e------10--|
b--8---8--|       b--7h8-----|
g-----(u)-|  x8   g----------|  x8
d---------|       d----------|
a---------|       a----------|
E---------|       E----------|
Comments