Taking Back Sunday - New American Classic Chords & Tabs

 

New American Classic Chords & Tabs

Taking Back Sunday Chords & Tabs

Version: 2 Type: Tab 2 ratings
1 star 2 stars 3 stars 4 stars 5 stars
comments

New American Classic Tab

NEW AMERICAN CLASSIC-TAKING BACK SUNDAY

This is the pretty much the best emo acoustic songs ever written


NOTE: This song is being fingerpicked, so NO picks aight?

tuning: standard (EADGBe)

key:
/ = slide up
\ = slide down
h = hammer on
p = pull off
x = dead note

intro/verse riff: "you've got to get better..."
e|-------------------2------------------------|
B|---0------3--------------3--5p0-----3-------|
G|-------------0--------0----------5----------|      (play till chorus)
D|------0h4-------0--0------------------------|
A|----------------------------3---------------|
E|---3----------------------------------------|

chorus: "just ask the question..."
e|--0---x-x---2(h3)---2(h3)---|
B|--3---5/7---0-------3-------|
G|--0---0-0---0-------0-------|
D|--0---5/7---2-------0-------|
A|--3---3/5---2-------x-------|
E|------------0-------3-------|

Chorus2: "and there's one thing..."
e|---2---x---x---x---|
B|---0---3---3---5---|
G|---0---0---0---0---|
D|---2---0---0---0---|
A|---2---2---3---5---|
E|---0---------------|

verse
chorus
chorus2
[ Tab from: http://www.guitartabs.cc/tabs/t/taking_back_sunday/new_american_classic_tab_ver_2.html ]
bridge: instrumental (a little random note picking, play around with these notes!)
e|---0----------------------------------------------------------------|
B|---3----5--3--5--7\3--3--0h3p0--5--0h3p0--0h3p0--5--5h7p5\3h5p--3---|
G|---0----0--0--0--0----0--0------0--0------0------0--0-----------0---|
D|---0----0--0--0-------0--0------0--0------0------0--------------0---|
A|---x----------------------------------------------------------------|
E|---3----3--3--3-------3--3------3--3------3------3--------------3---|

bridge(continued): bass and strings join in! (+soft drumming)
e|-------------------------------|--3-3h5p3-3-3---3---|
B|-------3------3------3-----3---|--3-3h5p3-3-3p0h3---|
G|-----0------0------0-----0-----|--------------------|tag!
D|---4------4------4-----4-------|--------------------|
A|----------3--------------------|--------------------|
E|---0-------------3-----3-------|--------------------|
 (these bass notes aren't necessary, but it sounds better I think)

bridge(continued):guitar solo riff (bass plays the bass notes here! Drums kick in)
e|--3---3p2-2-2----3/5/7--7h8-8-8-8p7-7---|--8p7-7--|------10--|
B|--3---3---3-3----3/5/8--8---8-8-8---8---|--8---8--|--7h8-----|
G|--------------4-------------------------|---------|----------|
D|----------------------------------------|---(8x)--|---(8x)---|
A|----------------------------------------|---------|----------|
E|----------------------------------------|---------|----------|
 (I believe there's a second guitar, but I can't be bothered, sorry)

chorus
chorus2

outro (same as intro, 'cept for the last time [below])
e|-------------------2-------------------------|
B|---0------3--------------3--5p0-----3-----0--|
G|-------------0--------0----------5-----5-----| (play a soft G chord) 
D|------0h4-------0--0-------------------------|
A|----------------------------3----------------|
E|---3-----------------------------------------|

Comments