Taking Back Sunday - My Blue Heaven Chords & Tabs

 

My Blue Heaven Chords & Tabs

Taking Back Sunday Chords & Tabs

Version: 2 Type: Tab

My Blue Heaven Tab

   
Artist: Taking Back Sunday
Song: My Blue Heaven
Album: Louder Now
Tuning: Drop Db(Db,Ab,Db,Gb,Bb,eb)

Okay, so my other whole tab was submitted as an intro, so I decided
to make it just that. An intro. This tab now contains the whole song.
Thanks to all you guys who made suggestions and comments and stuff.

Intro(clean)
Eb-----------------------------------------------------------|
Bb-----------7*----------7*----------------------------------|
Gb---------7*----------5*------------------------------------|
Db--9\7--0------5/7--0---------------------------------------|
Ab-----------------------------------------------------------|
Db-----------------------------------------------------------|

You just play that all throughout the verse.

Verse(guitar 2)(dist.)
Eb-----------------------------------------------------------|
Bb-----------------------------------------------------------|
Gb-44444444-66666666-77777777--------------------------------|
Db-44444444-66666666-77777777-55555555-----------------------|
Ab-22222222-44444444-55555555-55555555-----------------------|
Db----------------------------55555555-----------------------|
pm ........ ........ ........ ........

Pre-chorus(guitar 2)(guitar 1 just plays as normal)
Eb----------------------|
Bb-------8^-7^~~--------|
Gb----------------------|
Db-5-5-5----------------|
Ab-5-5-5----------------|
Db-5-5-5----------------|
The pinch harmonics fall in line with the natural harmonics played by guitar 1.

Chorus(guitar 1) 
Follow the rhythm shown below for guitar 2.
Eb-----------------------------------------------------------|
Bb-----------------------------------------------------------|
Gb-11--12-14-11--12-------11--12-11--12----------------------|
Db--x---x--x--x---x--------x---x--x---x----------------------|
Ab--9--10/12--9--10--------9--10--9--10----------------------|
Db-----------------------------------------------------------|
        ^last one slide   ^"little..."
         up to 12 and 
         right back down.

Chorus(guitar 2)
Eb-------------------------------------------------------------------|
Bb-------------------------------------------------------------------|
Gb-777-77-77-77-777666-66-66-66-666444-44-44-44-444333-33-33-33-333--|
Db-777-77-77-77-777666-66-66-66-666444-44-44-44-444333-33-33-33-333--|
Ab-555-55-55-55-555444-44-44-44-444222-22-22-22-222111-11-11-11-111--|
Db-------------------------------------------------------------------|

Eb-------------------------------------------------------------------|
Bb-------------------------------------------------------------------|
Gb-777-77-77-77-777666-66-6--------444-44-44-44-444333-33-33-33-333--|
Db-777-77-77-77-777666-66-67-77-777444-44-44-44-444333-33-33-33-333--|
Ab-555-55-55-55-555444-44-47-77-777222-22-22-22-222111-11-11-11-111--|
Db-000-00-00-00-000--------7-77-777----------------------------------|
                

Interlude(guitar 1)
Eb-----------------------------------------------------------|x2
Bb-----------------------------------------------------------|
Gb-----------------------------------------------------------|
Db--9---9/11-7---5p4-5p4--0----------------------------------|
Ab----------------------------0-2----------------------------|
Db-----------------------------------------------------------|

guitar 2
Eb-----------------------------------------------------------|x2
Bb-----------------------------------------------------------|
Gb-4---4-6---6-7--7------------------------------------------|
Db-4---4-6---6-7--7-7-9--------------------------------------|
Ab-2---2-4---4-5--5-7-9--------------------------------------|
Db------------------7-9--------------------------------------|
[ Tab from: http://www.guitartabs.cc/tabs/t/taking_back_sunday/my_blue_heaven_tab_ver_2.html ]
Verse 2(guitar 2)(guitar 1 plays as normal)
Eb-----------------------------------------------------------|
Bb-----------------------------------------------------------|
Gb-44---66------7----------4---6-----------------------------|
Db-44---66------7--5-------4x8-6x8-555555555555-5-5----------|
Ab-22---44------5--5-------2---4---555555555555-5-5----------|
Db-----------------5---------------555555555555-5-5----------|
"But double standard..." pm.   .   ........  

Play Chorus again.

Bridge(guitar 1) "We swing and we sway..."
Eb-----------------------------------------------------------|
Bb-----------------------------------------------------------|
Gb-9-----/11\9-----9\7-----15--------------------------------|
Db-x-x15---x-x-x16-x-x-x16--x-x16----------------------------|
Ab-7------/9\7-----7\5-----13--------------------------------|
Db-----------------------------------------------------------|
 
Bridge(guitar 2)
Eb-----------------------------------------------------------|
Bb-----------------------------------------------------------|
Gb-------------------------7~--------------------------------|
Db-7-----7-----5-----5-----7~--------------------------------|
Ab-7-x16-7-x16-5-x16-5-x16-5~--------------------------------|
Db-7-----6-----5-----5---------------------------------------|
pm                   .

Interlude(guitar 1)(clean)                          [don't play 2nd time]
Eb-------0---0---------0---0---------------------------------|x2
Bb-3--3---3-3-3-3---3---3-3-3-3-------3----3---[--3----]-----|
Gb-2--2-2--2---2----2-2--2---2--2----2-2-2-2---[-2-2-2-]-----|
Db-0--0-----------0-0-----------0-------0--0---[----0--]-----|
Ab----------------4-------------2----------1-----------------|
Db-----------------------------------------------------------|

Interlude(guitar 2)(clean)
(second measure only)           x2
Eb-------------14----------15-14-|-----------14---------1514------|
Bb-----------15------------------|---------15----------------15---|
Gb--16-14---------12-14----------|-16-14--------12-14---------14--|
Db--------12------------12-------|-------12-----------12-------12-|
Ab-------------------------------|--------------------------------|
Db-------------------------------|--------------------------------|
                                    Arpegiate this last chord^ a bit

Second Bridge(this is where Adam breathes in and goes "Safe. You are, safe")
For these use the same chords as the chorus for both guitars,
just not with the rhythm of the chorus.

Last Chorus(guitar 2)(guitar 1 plays the same)
The first measure is the same,
so this is the second.
Eb-------------------------------------------------------------------|
Bb-------------------------------------------------------------------|
Gb---------------------------------444-44-44-44-444333-33-33-33-333--|
Db-000-00-00-00-000444-44-44-44-444444-44-44-44-444333-33-33-33-333--|
Ab-000-00-00-00-000444-44-44-44-444222-22-22-22-222111-11-11-11-111--|
Db-000-00-00-00-000444-44-44-44-444----------------------------------|
"More than anything..."

Outro pt. 1(guitar 1)
Eb-----------------|
Bb-----------------|
Gb-11-----12-------|
Db--x-x16--x-x16---|
Ab--9-----10-------|
Db-----------------|
"You I can't deny."

Outro pt. 1(guitar 2)
Eb-----------------|
Bb-----------------|
Gb-4-----3---------|
Db-4-x16-3-x16-----|
Ab-2-----1---------|
Db-----------------|

Outro pt. 2(guitar 1)
Eb-----------------------------------------------------------|
Bb---------7*----------7*------------------------------------|
Gb-------7*---------5*----7*---------------------------------|
Db-9\7-0------5/7-0-------7*---------------------------------|
Ab-----------------------------------------------------------|
Db-----------------------------------------------------------|

AND THAT'S EVERYTHING! It took me like a week, but I did the
whole song. Thanks for all you guys' comments and ratings!
It's been a great help. You guys have been awesome.

Anything to say to me? Email me at SaintJimmy10@yahoo.com