Taking Back Sunday - Miami Chords & Tabs

 

Miami Chords & Tabs

Taking Back Sunday Chords & Tabs

Version: 1 Type: Tab

Miami Tab

   
Artist: Taking Back Sunday
Song: Miami
Album: Louder Now
Tuning: Half Step Down (Eb,Ab,Db,Gb,Bb,Eb)

Okay, guys. I'm only gonna tab the intro and first verse here.
For the stuff in the chorus I'm not very sure, and frankly, 
the solo is too hard and I can't figure it out. Anyway, here's
what I've got.

Intro(guitar 2)
Eb-------6~---------------------------------------------------|
Bb-x-----6~---------------------------------------------------|
Gb-x----------------------------------------------------------|
Db-x-x30------------------------------------------------------|
Ab-x----------------------------------------------------------|
Eb-x----------------------------------------------------------|
[ Tab from: http://www.guitartabs.cc/tabs/t/taking_back_sunday/miami_tab.html ]
Verse(guitar 2)"The whole truth..."
Eb------------------------------------------------------------|
Bb------------------------------------------------------------|
Gb-10-x12-8-x4-5-x8-6-x8-86-x16-10-x16------------------------|
Db--8-----6----3----4----64------8----------------------------|
Ab------------------------------------------------------------|
Eb------------------------------------------------------------|
pm  .     .    .    .    ..      .
Eb----------------------------------------------------------------|
Bb----------------------------------------------------------------|
Gb-10-x12-8-x4-5-x8-6-x8-86-x16-10101010101010101010101010101010--|
Db--8-----6----3----4----64------8-8-8-8-8-8-8-8-8-8-8-8-8-8-8-8--|
Ab----------------------------------------------------------------|
Eb----------------------------------------------------------------|
pm  .     .    .    .    ..      . . . . . . . . . . . 

Verse(guitar 1)                         these 3 notes faster 
                                        the others. 
Eb------------------------------------------------------------|
Bb-11-x6-9-x2-6-x4-7-x4-6-x4-7-x4-11-x4-9-x3------------------|
Gb-10----8----5----6----5----6----10----8---------------------|
Db------------------------------------------------------------|
Ab------------------------------------------------------------|
Eb------------------------------------------------------------|

Okay, thats the whole thing. I will not be adding anything else 
to this tab. This is the final version. Please rate it.

Anything to say to me goes to SaintJimmy10@yahoo.com. Thanks.