Taking Back Sunday - Makedamnsure Chords & Tabs

 

Makedamnsure Chords & Tabs

Taking Back Sunday Chords & Tabs

Version: 4 Type: Tab

Makedamnsure Tab

Taking Back Sunday
“Make Damn Sure”
LOUDER NOW
Tuning: DADGBE
Tabbed by: Chelsea

Guitar One:
Verse:
|-------------------------------------------------------------------|x2
|-------------------------------------------------------------------|
|-------------------------------------------------------------1-----|
|-----3-----3-----3-----3-----4-------3-----3-----3-----3---4-------|
|-------1-1---4-4---------2-2-----------1-1---------------2---------|
|-4-4---------------1-1-----------4-4---------3-3---1-1-------------|

Pre-Chorus
|-------------------------18----------------------------21------|x2
|----18----19----18----19----19----18----19----18----19----19---|
|-18----18----18----18----------18----18----18----18------------|
|---------------------------------------------------------------|
|---------------------------------------------------------------|
|---------------------------------------------------------------|
(Last time through don’t play the last note)

Chorus:
|--------------------------------------|x2
|--------------------------------------|
|---------6---------3-------4----------|
|-4-------6---------3-------4----------|
|-4-------4-(x16)---1-(x16)-2-(x16)----|
|-4-(x16)------------------------------|

Verse
Pre-Chorus
Chorus

Breakdown: (clean)
|--------------------------------------------------------------------|
|-7---7---7---7---7---7---7---7---7---7---7---7---7---7---7---7------|
|---8---8---8---8---8---8---8---8---8---8---8---8---8---8---8---8----|
|--------------------------------------------------------------------|
|--------------------------------------------------------------------|
|--------------------------------------------------------------------|

|---------------------------------------------------------------------|
|-7---7---7---7---7---7---7---7---6---6---6---6---6---6---6---6-------|
|---8---8---8---8---8---8---8---8---8---8---8---8---8---8---8---------|
|---------------------------------------------------------------------|
|---------------------------------------------------------------------|
|---------------------------------------------------------------------|

|---------------------------------------------------------------------|
|---------------------------------------------------------------------|
|---8----8----8----8----8----8----8----8---8---8---8---8---8---8---8--|
|11---11---11---11---11---11---11---11---9---9---9---9---9---9---9---9|
|---------------------------------------------------------------------|
|---------------------------------------------------------------------|
[ Tab from: http://www.guitartabs.cc/tabs/t/taking_back_sunday/makedamnsure_tab_ver_4.html ]
(Back to distortion)
|---------------------------------|
|---------------------------------|
|-8-8-8-8-6-6-6-6-4-4-4-4-3-3-3-3-|
|-x-x-x-x-x-x-x-x-x-x-x-x-x-x-x-x-|
|-6-6-6-6-4-4-4-4-2-2-2-2-1-1-1-1-|
|---------------------------------|
(Listen to the song for strumming)

Chorus

Ending:
|-----------------6-------------9--|
|---6---7---6---7---7---6---7---6--|
|-6---6---6---6-------6---6---6-6--|
|----------------------------------|
|----------------------------------|
|----------------------------------|



<<<