Taking Back Sunday - Makedamnsure Chords & Tabs

 

Makedamnsure Chords & Tabs

Taking Back Sunday Chords & Tabs

Version: 3 Type: Tab

Makedamnsure Tab

tbs
makedamnsure
louder now
tuning- EADGBe

intro
------------------------------------------------|
------------------------------------------------|
------------------------------------------------|
--------4~------4-------4------4----------------|
--------------------22--------------------------|
----00------33------------00--------------------|
[ Tab from: http://www.guitartabs.cc/tabs/t/taking_back_sunday/makedamnsure_tab_ver_3.html ]
verse- palm mute
----------------------------------------------------------|
----------------------------------------------------------|
-----------------------4-------------------5--------------|
----5---------4--------4--[4x]---2---------5--[8x]--------|
----5--[8x]---4--[4x]--2---------2--[8x]---3--------------|
----3---------2------------------0------------------------|

pre chour
---------15------14------15------14------19-14------------|
-----15------15------15------15---------------------------|
----------------------------------------------------------|
----------------------------------------------------------|
----------------------------------------------------------|
----------------------------------------------------------|


chour
--------------------------------------|
--------------------------------------|
--------------------------------------|play 4x
-----5-----------5--------------------|
-----5--[14x]----5--[14x]-------------|
-----3-----------7--------------------|


subsidedfailure@hotmail.com