Taking Back Sunday - Makedamnsure Chords & Tabs

 

Makedamnsure Chords & Tabs

Taking Back Sunday Chords & Tabs

Version: 2 Type: Tab 3 ratings
1 star 2 stars 3 stars 4 stars 5 stars
comments

Makedamnsure Tab

THIS SONG IS IN DROP D FOR THE LAST STRING!!!!! iv heard people try to play it in normal standard 
tuneing and it sounds like crap. its  a fairly easy song other then the pre-chorus wich i dont know
how to play to i just do without. give me a good rating cause this is my second tab iv done. (my
other one is surrender by billy talent wich can be a tricky song) leave a comment to tell me how 
to do better. thanx
-----------------------------------------------
-----------------------------------------------
-----------------------------------------------
-------3--------3------3------3-------4-------- x2
------------1-1----4-4------------2-2----------
---4-4--------------------1-1------------------

guitar one
-----------------------------------------------
-----------------------------------------------
-----------------------------------------------
-------3--------3------3------3-------4-------- x2
------------1-1----4-4------------2-2----------
---4-4--------------------1-1------------------
[ Tab from: http://www.guitartabs.cc/tabs/t/taking_back_sunday/makedamnsure_tab_ver_2.html ]
guitar two
-----------------------------------------------------------------------------
-----------------------------------------------------------------------------
--------------------3-3-3-3-3-3-3--3----------------------4-4-4-4-4-4-4-4----
--4-4-4-4-4-4-4-4---3-3-3-3-3-3-3--3---1-1-1-1-1-1-1-1----4-4-4-4-4-4-4-4---- x2
--4-4-4-4-4-4-4-4---1-1-1-1-1-1-1--1---1-1-1-1-1-1-1-1----2-2-2-2-2-2-2-2----
--4-4-4-4-4-4-4-4----------------------1-1-1-1-1-1-1-1-----------------------

im not sure how theh prechorus goes cuz i cant play the frets that high so im kinda screwed but
feel free to try it out and learn it

chorus
--------------------------------------------------------------------------------------------------
--------------------------------------------------------------------------------------------------
----------------------------------6-6-6-6-6-6-6-6-6-6-6-6-6-6-6-6--3-3-3-3-3-3-3-3-3-3-3-3-3-3-3-3-
4-4-4-4-4-4-4-4-4-4-4-4-4-4-4-4---6-6-6-6-6-6-6-6-6-6-6-6-6-6-6-6--3-3-3-3-3-3-3-3-3-3-3-3-3-3-3-3-
4-4-4-4-4-4-4-4-4-4-4-4-4-4-4-4---4-4-4-4-4-4-4-4-4-4-4-4-4-4-4-4--1-1-1-1-1-1-1-1-1-1-1-1-1-1-1-1-
4-4-4-4-4-4-4-4-4-4-4-4-4-4-4-4--------------------------------------------------------------------

----------------------------------
----------------------------------
--4-4-4-4-4-4-4-4-4-4-4-4-4-4-4-4-
--4-4-4-4-4-4-4-4-4-4-4-4-4-4-4-4- x2 the chorus
--2-2-2-2-2-2-2-2-2-2-2-2-2-2-2-2-
----------------------------------
Comments