Taking Back Sunday - Makedamnsure Chords & Tabs

 

Makedamnsure Chords & Tabs

Taking Back Sunday Chords & Tabs

Version: 1 Type: Tab 2 ratings
1 star 2 stars 3 stars 4 stars 5 stars
comments

Makedamnsure Tab

   
artist: Taking Back Sunda
y title: MakeDa
mnSure album
: Louder Now (2006) written by: Taking Back Sunday t
abbed by: aaron
 cooper 
(coopdragATyahoo.com) here is the tab for 'MakeDamnSure'. great 
song, more r
artist: Taking Back Sunday 
title: MakeDamnSure 
album: Louder Now (2006) 
written by: Taking Back Sunday 
tabbed by: aaron cooper (coopdragATyahoo.com) 
here is the tab for 'MakeDamnSure'. great song, more rock \m/ and less emo. Its pretty simple and predictable if you are used to playing music from Taking Back Sunday. there are 2 guitars, and in this file i will be tabbing them both, however, im not sure which guitarist is playing which, so i will tab the song as an arrangment for one guitar, and tab out the fills seperate. 
you can get the rythem patterns yourself, c'mom it common sense lol note: guitars and bass tuned down 1/2 step. 

Guitar 1: clean eletric (slight reverb) 

Riff 1: 
"you've got this new head filled up with smoke....." 
e|------------------------------------------------| 
b|-----------------------------------------5-5-5-5| 
g|-----0-------0-------0------0-------5~---5-5-5-5| 
d|---------------------------------0-------5-5-5-5| 
a|---------2-2-----5-5-----2-------3-------3-3-3-3| 
E|-3-3-------------------0-0----------------------| 

Guitar 2: Distorted Electric (palm mute) 
Riff 2: (Guitar 1 can repeat Riff 1 along) 

"A long night spent with your most......." 

....G...B...D...E...C2 

e|--x---x---x---x---x---| 
b|--x---x---x---x---3---| 
g|--x---4---7---x---0---| 
d|--5---4---7---x---0---| 
a|--5---2---5---2---3---| 
E|--3---x---x---0---x---| 

Guitar 1: Distorted Electric (all downstrokes) 
Riff 3 

"We lay, we lay together just not too close...." 

..C5....C5/B....D 
[ Tab from: http://www.guitartabs.cc/tabs/t/taking_back_sunday/makedamnsure_tab.html ]
e|-x-----x------x---| 
b|-x-----x------x---| 
g|-5-----5------7---| 
d|-5-----5------7---|..... X2 
a|-3-----2------5---| 
E|-x-----x------x---| 

Guitar 2: Distorted with Chorus 
Riff: 4 (Natural Harmonics) 

e|------------------------------ 
b|---7]---------7]---7]----5]--- 
g|-7]---7]-5]-7]---7]-----5]---- 
d|------------------------------ 
a|------------------------------ 
E|------------------------------ 
e|--------------------------5]---| 
b|---7]---------7]---7]-------5]-| 
g|-7]---7]-5]-7]---7]------------| 
d|-------------------------------| 
a|-------------------------------| 
E|-------------------------------| 

Guitar 1 & 2 (Dist. downstrokes) 
Riff 5: 

"I just wanna break you down so badly...." 

...G....D....Bm...C..... 

e|--x---x----x----x-------| 
b|--x---x----3----x-------| 
g|--x---7----4----5-------| 
d|--5---7----4----5-------| 
a|--5---5----2----3-------| 
E|--3---x----x----x-------| 

Guitar 1: clean electric 

Riff 6: ......................."Gonna make damn sure..." 
........................Bm..D5..G/D5..C6 e|---3--3--3--3--3--]---2---x---2-----x--| 
b|--5--5--5--5--5---]---3---7---3-----3--| 
g|------------------]---4---7---0-----0--| 
d|------------------]---4---7---0-----0--| 
a|------------------]---2---5---0-----3--| 
E|------------------]---x---x---3-----x--| 

Guitar 2: Distorted 
Riff (Fill in during second half of Riff 6) 
e|--x---x---x--------| 
b|--x---x---x--------| 
g|--5---4---2--------| 
d|--x---x---x--------| 
a|--3---2---0--------| 
E|--x---x---x--------| 

Guitar 1: Clean Eletric w/ Chorus 
Outro Riff 
e|-------------------------------------10---| 
b|----7---8---7---8--12--8---7--8--7---8----| 
g|--0---0---0---0----------0---0--0---------| 
d|------------------------------------------| 
a|------------------------------------------| 
E|------------------------------------------| 
Comments