Taking Back Sunday - Little Devotional Chords & Tabs

 

Little Devotional Chords & Tabs

Taking Back Sunday Chords & Tabs

Version: 2 Type: Tab

Little Devotional Tab

   

Tuning:
Guitars 1, 2, 3&4 Standard
Bass (tabbed for guitar) Standard


INTRO
Bass (tabbed for guitar)
E|-----------------------------------------------------------------|
B|-----------------------------------------------------------------|
G|-----------------------------------------------------------------|
D|-2-2-2-2-2-2-2---------2-2-2-2-2-2-2-2-2-------------------------|
A|---------------0-2-2-2-------------------4-4-4-0-------0-0-0-0-0-|1x
E|-------------------------------------------------4-4-4-----------|



Bass (tabbed for guitar)
E|-----------------------------------------------------------------|
B|-----------------------------------------------------------------|
G|-----------------------------------------------------------------|
D|-2-2-2-2-2-2-2---------2-2-2-2-2-2-2-2-2-------------------------|
A|---------------0-2-2-2-------------------4-4-4-0-------0-0-0-0-0-|1x
E|-------------------------------------------------4-4-4-----------|
 |
 |
Guitar 1
E|-----------------------------------------------------------------|
B|-----------------------------------------------------------------|
G|-9~~~~~----------------------------------------------------------|
D|-x---------------------------------------------------------------|
A|-7~~~~~----------------------------------------------------------|1x
E|---------------------------------------------------X\\\\\\\\\\\\\|



Guitar 1
E|-----4p0-7p0-4p0-----0-----0---------4p0-7p0-4p0-----0-----0-----|
B|-4/5-------------4/5---2/4---0p2-4/5-------------4/5---2/4---0p2-|
G|-----------------------------------------------------------------|
D|-----------------------------------------------------------------|
A|-----------------------------------------------------------------|2x
E|-----------------------------------------------------------------|
 |
 |
Guitar 2
E|-------------------------------------7p0-11p0-7p0----0-----0-----|
B|---------------------------------7/9-------------7/9---5/7---4/5-|
G|-----------------------------------------------------------------|
D|-----------------------------------------------------------------|
A|-----------------------------------------------------------------|2x
E|-----------------------------------------------------------------|
 |
 |
Guitar 3
E|-----------------------------------------------------------------|
B|-----------------------------------------------------------------|
G|-9-9-9-9-9-9-9-9-----------------9-9-9-9-9-9-9-9-----------------|
D|-9-9-9-9-9-9-9-9-9-9-9-9-9-9-9-9-9-9-9-9-9-9-9-9-----------------|
A|-7-7-7-7-7-7-7-7-9-9-9-9-9-9-9-9-7-7-7-7-7-7-7-7-7-7-7-7-7-7-7-7-|2x
E|-----------------7-7-7-7-7-7-7-7-----------------4-4-4-4-5-5-5-5-|


VERSE
Guitar 1
E|-------------------------------------------------------------|
B|-------------------------------------------------------------|
G|-------------------------------------------------------------|
D|-------------6-6h7p6-6-6h7p6---------------6h7p6-6-6h7p6-----|
A|-7~~~~~------------------------7~~~~~--------------------7~~~|1x
E|-------------------------------------------------------------|
 |
 |
Guitar 2
E|-------------------------------------------------------------|
B|-------------9~~~~~---10~~~~~--------9~~~~~9~~~~~---10~~~~~--|
G|-9~~~~~--------9~~~~-----9~~~~~--------------9~~~~~----9~~~~~|
D|-x-----9~~~~~------------------9~~~~~------------------------|
A|-7~~~~~------------------------------------------------------|1x
E|-------------------------------------------------------------|


Guitar 1
E|-------------------------------------------------------------|
B|-------------------------------------------------------------|
G|-------------------------------------------------------------|
D|-------------2-2h4p2-1-1h2p1-------------2-2h4p2-1-1h2p1-----|
A|-4~~~~~------------------------4~~~~~------------------------|1x
E|-------------------------------------------------------------|
 |
 |
Guitar 2
E|-------------------------------------------------------------|
B|-------------9~~~~~----7~~~~~--------9~~~~~9~~~~~----7~~~~~--|
G|-6-------9~~~~-----9~~~~~--------------9~~~~~----9~~~~~------|
D|-x----6~~~~~-------------------6~~~~~------------------------|
A|-4~~~~~------------------------------------------------------|1x
E|-------------------------------------------------------------|


     CHORUS
     Guitar 1
     E|-----------------------------------------------------------------|
     B|-----------------------------------------------------------------|
     G|-9-9-9-9-9-9-9-9\8-8-8-8/9-9-9-9-9-9-9-9-9-9-9-9\8-8-8-8/9-9-9-9-|
     D|-x-x-x-x-x-x-x-x-x-x-x-x-x-x-x-x-x-x-x-x-x-x-x-x-x-x-x-x-x-x-x-x-|
     A|-7-7-7-7-7-7-7-7\6-6-6-6/7-7-7-7-7-7-7-7-7-7-7-7\6-6-6-6/7-7-7-7-|2x
     E|-----------------------------------------------------------------|
      |
      |
     Guitar 2
     E|-----------------------------------------------------------------|
     B|-----------------------------------------------------------------|
     G|-9-9-9-9-9-9-9-9-9-9-9-9-9-9-9-9-9-9-9-9-9-9-9-9-9-9-9-9-9-9-9-9-|
     D|-x-x-x-x-x-x-x-x-x-x-x-x-x-x-x-x-x-x-x-x-x-x-x-x-x-x-x-x-x-x-x-x-|
     A|-7-7-7-7-7-7-7-7-7-7-7-7-7-7-7-7-7-7-7-7-7-7-7-7-7-7-7-7-7-7-7-7-|2x
     E|-----------------------------------------------------------------|


VERSE
Guitar 1
E|-------------------------------------------------------------|
B|-------------------------------------------------------------|
G|-------------------------------------------------------------|
D|-------------6-6h7p6-6-6h7p6---------------6h7p6-6-6h7p6-----|
A|-7~~~~~------------------------7~~~~~--------------------7~~~|1x
E|-------------------------------------------------------------|
 |
 |
Guitar 2
E|-------------------------------------------------------------|
B|-------------9~~~~~---10~~~~~--------9~~~~~9~~~~~---10~~~~~--|
G|-9~~~~~--------9~~~~-----9~~~~~--------------9~~~~~----9~~~~~|
D|-x-----9~~~~~------------------9~~~~~------------------------|
A|-7~~~~~------------------------------------------------------|1x
E|-------------------------------------------------------------|

[ Tab from: http://www.guitartabs.cc/tabs/t/taking_back_sunday/little_devotional_tab_ver_2.html ]
Guitar 1
E|-------------------------------------------------------------|
B|-------------------------------------------------------------|
G|-------------------------------------------------------------|
D|-------------2-2h4p2-1-1h2p1-------------2-2h4p2-1-1h2p1-----|
A|-4~~~~~------------------------4~~~~~------------------------|1x
E|-------------------------------------------------------------|
 |
 |
Guitar 2
E|-------------------------------------------------------------|
B|-------------9~~~~~----7~~~~~--------9~~~~~9~~~~~----7~~~~~--|
G|-6-------9~~~~-----9~~~~~--------------9~~~~~----9~~~~~------|
D|-x----6~~~~~-------------------6~~~~~------------------------|
A|-4~~~~~------------------------------------------------------|1x
E|-------------------------------------------------------------|


PRE-CHORUS
Guitar 1
E|-----------------------------------------------------------------|
B|-----------------------------------------------------------------|
G|-6-6-6-6-6-6-6-6---8-8-8-8-8-8-8-9-9-9-9-9-9-9---9-9-9-9-9-9-9-9-|
D|-x-x-x-x-x-x-x-x---x-x-x-x-x-x-x-x-x-x-x-x-x-x---x-x-x-x-x-x-x-x-|
A|-4-4-4-4-4-4-4-4---6-6-6-6-6-6-6-7-7-7-7-7-7-7---7-7-7-7-7-7-7-7-|1x
E|-----------------------------------------------------------------|


Guitar 1
E|-----------------------------------------------------------------|
B|-----------------------------------------------------------------|
G|-6-6-6-6-6-6-6-6---4-4-4-4-4-4-4-2-2-2-2-2-2-2-------------------|
D|-x-x-x-x-x-x-x-x---x-x-x-x-x-x-x-x-x-x-x-x-x-x-------------------|
A|-4-4-4-4-4-4-4-4---2-2-2-2-2-2-2-0-0-0-0-0-0-0-------------------|1x
E|-----------------------------------------------0-0-0-0-0-0-0-0-0-|
                                                pm . . . . . . . .


     CHORUS
     Guitar 1
     E|-----------------------------------------------------------------|
     B|-----------------------------------------------------------------|
     G|-9-9-9-9-9-9-9-9\8-8-8-8/9-9-9-9-9-9-9-9-9-9-9-9\8-8-8-8/9-9-9-9-|
     D|-x-x-x-x-x-x-x-x-x-x-x-x-x-x-x-x-x-x-x-x-x-x-x-x-x-x-x-x-x-x-x-x-|
     A|-7-7-7-7-7-7-7-7\6-6-6-6/7-7-7-7-7-7-7-7-7-7-7-7\6-6-6-6/7-7-7-7-|2x
     E|-----------------------------------------------------------------|
      |
      |
     Guitar 2
     E|-----------------------------------------------------------------|
     B|-----------------------------------------------------------------|
     G|-9-9-9-9-9-9-9-9-9-9-9-9-9-9-9-9-9-9-9-9-9-9-9-9-9-9-9-9-9-9-9-9-|
     D|-x-x-x-x-x-x-x-x-x-x-x-x-x-x-x-x-x-x-x-x-x-x-x-x-x-x-x-x-x-x-x-x-|
     A|-7-7-7-7-7-7-7-7-7-7-7-7-7-7-7-7-7-7-7-7-7-7-7-7-7-7-7-7-7-7-7-7-|2x
     E|-----------------------------------------------------------------|


BRIDGE
Guitar 1
E|---------------------------------|
B|---------------------------------|
G|-6666-6-6666-6-66666666-6-6666-6-|
D|---------------------------------|
A|---------------------------------|2x
E|---------------------------------|
 |
 |
Guitar 2
E|-4~~~~~~~2~~~~~~~0~~~~~~~0~~~~~~~|
B|-------------------------2~~~~~~~|
G|---------------------------------|
D|---------------------------------|
A|-4~~~~~~~2~~~~~~~0~~~~~~~0~~~~~~~|2x
E|---------------------------------|


PRE-CHORUS
Guitar 1
E|-----------------------------------------------------------------|
B|-----------------------------------------------------------------|
G|-6-6-6-6-6-6-6-6---8-8-8-8-8-8-8-9-9-9-9-9-9-9---9-9-9-9-9-9-9-9-|
D|-x-x-x-x-x-x-x-x---x-x-x-x-x-x-x-x-x-x-x-x-x-x---x-x-x-x-x-x-x-x-|
A|-4-4-4-4-4-4-4-4---6-6-6-6-6-6-6-7-7-7-7-7-7-7---7-7-7-7-7-7-7-7-|1x
E|-----------------------------------------------------------------|


Guitar 1
E|-----------------------------------------------------------------|
B|-----------------------------------------------------------------|
G|-6-6-6-6-6-6-6-6---4-4-4-4-4-4-4-2-2-2-2-2-2-2-------------------|
D|-x-x-x-x-x-x-x-x---x-x-x-x-x-x-x-x-x-x-x-x-x-x-------------------|
A|-4-4-4-4-4-4-4-4---2-2-2-2-2-2-2-0-0-0-0-0-0-0-------------------|1x
E|-----------------------------------------------0-0-0-0-0-0-0-0-0-|


     CHORUS
     Guitar 1
     E|-----------------------------------------------------------------|
     B|-----------------------------------------------------------------|
     G|-9-9-9-9-9-9-9-9\8-8-8-8/9-9-9-9-9-9-9-9-9-9-9-9\8-8-8-8/9-9-9-9-|
     D|-x-x-x-x-x-x-x-x-x-x-x-x-x-x-x-x-x-x-x-x-x-x-x-x-x-x-x-x-x-x-x-x-|
     A|-7-7-7-7-7-7-7-7\6-6-6-6/7-7-7-7-7-7-7-7-7-7-7-7\6-6-6-6/7-7-7-7-|2x
     E|-----------------------------------------------------------------|
      |
      |
     Guitar 2
     E|-----------------------------------------------------------------|
     B|-----------------------------------------------------------------|
     G|-9-9-9-9-9-9-9-9-9-9-9-9-9-9-9-9-9-9-9-9-9-9-9-9-9-9-9-9-9-9-9-9-|
     D|-x-x-x-x-x-x-x-x-x-x-x-x-x-x-x-x-x-x-x-x-x-x-x-x-x-x-x-x-x-x-x-x-|
     A|-7-7-7-7-7-7-7-7-7-7-7-7-7-7-7-7-7-7-7-7-7-7-7-7-7-7-7-7-7-7-7-7-|2x
     E|-----------------------------------------------------------------|


     Guitar 1
     E|-----------------------------------------------------------------|
     B|-----------------------------------------------------------------|
     G|-9-9-9-9-9-9-9-9\8-8-8-8/9-9-9-9-9-9-9-9-9-9-9-9\8-8-8-8/9-9-9-9-|
     D|-x-x-x-x-x-x-x-x-x-x-x-x-x-x-x-x-x-x-x-x-x-x-x-x-x-x-x-x-x-x-x-x-|
     A|-7-7-7-7-7-7-7-7\6-6-6-6/7-7-7-7-7-7-7-7-7-7-7-7\6-6-6-6/7-7-7-7-|2x
     E|-----------------------------------------------------------------|
      |
      |
     Guitar 2
     E|-----------------------------------------------------------------|
     B|-----------------------------------------------------------------|
     G|-9-9-9-9-9-9-9-9-9-9-9-9-9-9-9-9-9-9-9-9-9-9-9-9-9-9-9-9-9-9-9-9-|
     D|-x-x-x-x-x-x-x-x-x-x-x-x-x-x-x-x-x-x-x-x-x-x-x-x-x-x-x-x-x-x-x-x-|
     A|-7-7-7-7-7-7-7-7-7-7-7-7-7-7-7-7-7-7-7-7-7-7-7-7-7-7-7-7-7-7-7-7-|2x
     E|-----------------------------------------------------------------|
      |
      |
     Guitar 3
     E|-----4p0-7p0-4p0-----0-----0---------4p0-7p0-4p0-----0-----0-----|
     B|-4/5-------------4/5---2/4---0p2-4/5-------------4/5---2/4---0p2-|
     G|-----------------------------------------------------------------|
     D|-----------------------------------------------------------------|
     A|-----------------------------------------------------------------|2x
     E|-----------------------------------------------------------------|
      |
      |
     Guitar 4
     E|-------------------------------------7p0-11p0-7p0----0-----0-----|
     B|---------------------------------7/9-------------7/9---5/7---4/5-|
     G|-----------------------------------------------------------------|
     D|-----------------------------------------------------------------|
     A|-----------------------------------------------------------------|2x
     E|-----------------------------------------------------------------|



OUTTRO
Guitar 1
E|---------|
B|---------|
G|-9~~~~~~~|
D|-x-------|
A|-7~~~~~~~|1x
E|---------|