Taking Back Sunday - Liar It Takes One To Know One Chords & Tabs

 

Liar It Takes One To Know One Chords & Tabs

Taking Back Sunday Chords & Tabs

Version: 3 Type: Tab

Liar It Takes One To Know One Tab

Song: Liar (It Takes One To Know One)
Artist: Taking Back Sunday
Album: Louder Now
Comments: I noticed that none of these tabs sounded quite exactly right.  So I took the 
to do it according to my ear.

Intro

Guitar 1
eb|------------------------------------------------------------|
bb|------------------------------------------------------------|
gb|--5-X12--7-X4--9-X12--10-X4--5-X8--4-X8--2-X8--1-x4--4-x4---| x1
db|--7------9-----10-----12-----7-----5-----3-----2-----6------|
ab|------------------------------------------------------------|
eb|------------------------------------------------------------|

Verse 1 (All our secrets they are tailored...)

Guitar 1
eb|------------------------------------------------------------|
bb|------------------------------------------------------------|
gb|--5-X12--7-X4--9-X12--10-X4--5-X8--4-X8--2-X8--1-x4--4-x4---| x2
db|--7------9-----10-----12-----7-----5-----3-----2-----6------|
ab|------------------------------------------------------------|
eb|------------------------------------------------------------|

Guitar 2 (Come in after Guitar 1 plays riff once)
eb|--x-x-x-x-x-x--5--5--5--4--5--5--x-x-x-x-x-x---|
Bb|--x-x-x-x-x-x--5--5--5--4--5--5--x-x-x-x-x-x---|
Gb|--x-x-x-x-x-x--5--5--5--5--5--5--x-x-x-x-x-x---| x1
Db|--x-x-x-x-x-x--------------------x-x-x-x-x-x---|
Ab|--x-x-x-x-x-x--------------------x-x-x-x-x-x---|
Eb|--x-x-x-x-x-x--------------------x-x-x-x-x-x---|

Guitar 2 (Cont.)
eb|--5--5--4--4--1--1--4~---|
Bb|--5--5--4--4--1--1--5~---|
Gb|--5--5--5--5--2--2--7~---| x1
Db|-------------------------|
Ab|-------------------------|
Eb|-------------------------|

Prechorus (I'm an addict for dramatics...)

Guitar 1
eb|----------------------------------------------|
Bb|----------------------------------------------|
Gb|----------------------------------------------| x1
Db|--3-----6-----7------5-----3-----6-----7------|
Ab|--3-x8--7-x8--7-x12--5-x4--3-x8--7-x8--7-x8---|
Eb|--1-----4-----5------3-----1-----4-----5------|

Chorus (Liar, if we're keeping score...)

Guitar 1
eb|------------------------------------------------|
Bb|------------------------------------------------|
Gb|---------------5------7-------------------------| x2
Db|--7------5-----5-x12--7-x4--7-----5-----3-------|
Ab|--7-x12--5-x4--3------5-----7-x8--5-x8--3-x16---|
Eb|--5------3------------------5-----3-----1-------|

Preverse (Got 26 days to work with...)

Guitar 1
eb|--0~---|
Bb|--0~---|
Gb|--5~---|x1
Db|--7~---|
Ab|--7~---|
Eb|--5~---|

Verse 2 (Then back on that island...)

Guitar 1
eb|------------------------------------------------------------|
bb|------------------------------------------------------------|
gb|--5-X12--7-X4--9-X12--10-X4--5-X8--4-X8--2-X8--1-x4--4-x4---| x2
db|--7------9-----10-----12-----7-----5-----3-----2-----6------|
ab|------------------------------------------------------------|
eb|------------------------------------------------------------|

Guitar 2
eb|--5--5--5--4--5--5--x-x-x-x-x-x---|
Bb|--5--5--5--4--5--5--x-x-x-x-x-x---|
Gb|--5--5--5--5--5--5--x-x-x-x-x-x---| x1
Db|--------------------x-x-x-x-x-x---|
Ab|--------------------x-x-x-x-x-x---|
Eb|--------------------x-x-x-x-x-x---|
[ Tab from: http://www.guitartabs.cc/tabs/t/taking_back_sunday/liar_it_takes_one_to_know_one_tab_ver_3.html ]
Guitar 2 (Cont.)
eb|--5--5--4--4--1--1--4--4---|
Bb|--5--5--4--4--1--1--5--5---|
Gb|--5--5--5--5--2--2--7--7---| x1
Db|---------------------------|
Ab|---------------------------|
Eb|---------------------------|

                            Repeat both Guitar 2 parts once before Prechorus

Prechorus (I'm an addict for dramatics...)

Guitar 1
eb|----------------------------------------------|
Bb|----------------------------------------------|
Gb|----------------------------------------------| x1
Db|--3-----6-----7------5-----3-----6-----7------|
Ab|--3-x8--7-x8--7-x12--5-x4--3-x8--7-x8--7-x8---|
Eb|--1-----4-----5------3-----1-----4-----5------|

Chorus (Liar, if we're keeping score...)

Guitar 1
eb|------------------------------------------------|
Bb|------------------------------------------------|
Gb|---------------5------7-------------------------| x2
Db|--7------5-----5-x12--7-x4--7-----5-----3-------|
Ab|--7-x12--5-x4--3------5-----7-x8--5-x8--3-x16---|
Eb|--5------3------------------5-----3-----1-------|

Prebridge (We're all choir boys at best...)

Guitar 1
eb|----------------|
Bb|----------------|
Gb|----------------|x1
Db|--6~--9~--10~---|
Ab|--6~--9~--10~---|
Eb|--4~--7~---8~---|

Bridge (Instrumental)

Guitar 2
eb|-----------------------------------------------------|
bb|-----------------------------------------------------|
gb|---8-X12--10-X4--12-X12--13-X4---8-X8--7-X8--5-X16---| x2
db|--10------12-----13------15-----10-----8-----6-------|
ab|-----------------------------------------------------|
eb|-----------------------------------------------------|

Chorus (Liar, if we're keeping score...)

Guitar 1
eb|------------------------------------------------|
Bb|------------------------------------------------|
Gb|---------------5------7-------------------------| x2
Db|--7------5-----5-x12--7-x4--7-----5-----3-------|
Ab|--7-x12--5-x4--3------5-----7-x8--5-x8--3-x16---|
Eb|--5------3------------------5-----3-----1-------|

Outro (Liar, liar...)

Guitar 1
eb|------------------------------------------------|
Bb|------------------------------------------------|
Gb|---------------5------7-------------------------| x1
Db|--7------5-----5-x12--7-x4--7-----5-----3-------|
Ab|--7-x12--5-x4--3------5-----7-x8--5-x8--3-x8----|
Eb|--5------3------------------5-----3-----1-------|

Guitar 2
eb|------------------------------------------------------------|
bb|------------------------------------------------------------|
gb|--5-X12--7-X4--9-X12--10-X4--5-X8--4-X8--2-X8--1-x4--4-x4---| x1
db|--7------9-----10-----12-----7-----5-----3-----2-----6------|
ab|------------------------------------------------------------|
eb|------------------------------------------------------------|

Guitar 1
eb|------x-x-x------x-x-x------x-x-x------x-x-x----------|
Bb|------x-x-x------x-x-x------x-x-x------x-x-x----------|
Gb|------x-x-x------x-x-x------x-x-x------x-x-x----------| x1
Db|--7--x-x-x--7--x-x-x--7--x-x-x--7--x-x-x--7~----------|
Ab|--7--x-x-x--7--x-x-x--7--x-x-x--7--x-x-x--7~----------|
Eb|--5--x-x-x--5--x-x-x--5--x-x-x--5--x-x-x--5~----------|

Guitar 2
eb|--------------------|
bb|--------------------|
gb|--5-X28--4-X4--5~---| x1
db|--7------6-----7~---|
ab|--------------------|
eb|--------------------|