Taking Back Sunday - Head Club Chords & Tabs

 

Head Club Chords & Tabs

Taking Back Sunday Chords & Tabs

Version: 1 Type: Bass Tab 0 ratings
1 star 2 stars 3 stars 4 stars 5 stars
comments

Head Club Bass Tab

Artist: Taking Back Sunday
Song: Head Club
Standard Tuning

Intro 4x
|----------------
|----------------
|----2/3-3-3-3---
|----------------

Verse 4x
|------------------------------------------------------------------
|------------------------------------------------------------------
|--2-2-2-2-2-2-2-2---5-5-5-5-5-5-5-5--------2/3-3-3-3--2/3-3-3-3---
|------------------------------------------------------------------

Prechorus 1x
|--------------------
|--------------------
|--------------------
|--0-0-0-0-0-0-0-0---

Chorus pt.1 2x
|-------------------------------------
|-------------------------------------
|----------------3--------------------
|-----0-----------------3------2------
[ Tab from: http://www.guitartabs.cc/tabs/t/taking_back_sunday/head_club_btab.html ]
Chorus pt.2 2x
|------------------------------------
|------------------------------------
|----------3-3-3-3-------------------
|--0-0-0-0---------3-3-3-3-2-2-2-2---

Bridge 1x
|-----------------------------------------------------
|-----------------------------------------------------
|-------------------3-3-3-3-3-3-3-3-3-3-3-3-3-3-3-3---
|---3~~~~/5/7-----------------------------------------

Outro 4x
|------------------------------------------------------------------
|------------------------------------------------------------------
|----------------------------------3-3-3-3-3-3-3-3-3-3-3-3-3-3-3-3-
|--3-3-3-3-3-3-3-3-0-0-0-0-0-0-0-0---------------------------------

Ending 1x
|---------------------------
|---------------------------
|---------------------------
|--3~---3~---3~---3~---3~---
Comments