Taking Back Sunday - Great Romances Of The 20th Century Chords & Tabs

 

Great Romances Of The 20th Century Chords & Tabs

Taking Back Sunday Chords & Tabs

Version: 1 Type: Tab 0 ratings
1 star 2 stars 3 stars 4 stars 5 stars
comments

Great Romances Of The 20th Century Tab

Taking Back Sunday: Great Romances of the 20th Century


Strumming and chord changes are up to you to figure out..
Comments? Paul Dick: toad-666@cogeco.ca

Standard Tuning

INTRO (4X)
E----------------------------------------------------------------------
B-----------------------------4----------------------------------------
G-------4---4---4--------4---------4-------4---4---4-------4-------4---
D-----4---4---4---4----4---4-----4---4---4---4---4---4---4---4---4---4-
A---2------------------------------------------------------------------
E-------------------0------------------2-------------2-4-------0-------

VERSE PART 1
E----------------------------------------------------------------------
B---------------------------------------------------------4------------
G---8---4---8---6-11------------8---4---4---6-8-4-----4-----4----------
D------------------------RPT----------------------------4--------------
A---6---2---6---4-9-------3X----6---2---2---4-6-2----------------------
E----------------------------------------------------------------------
[ Tab from: http://www.guitartabs.cc/tabs/t/taking_back_sunday/great_romances_of_the_20th_century_tab.html ]
VERSE PART 2				VERSE PART 3
E----------------------------------------------------------------------
B---------------0---4--------------------------------------------------
G----4--4-------1---4---3--RPT-------------------------------RPT-------
D----4--4--6----2---4---4---4X-------6-6---4-4---2-2---2-2----4X-------
A----2--1--6----2---2---4------------6-6---4-4---2-2---2-2-------------
E----------4----0-------2------------4-4---2-2---0-0---0-0-------------

CHORUS (REPEAT 2X) 
E---------------------------------------------------------------------- 
B---------------------------------------------------------------------- 
G----------------1-1--1-1--1-1--1-1---------4-4---1-1--1-1--1-1--1-1--- 
D----6-6---4-4---2-2--2-2--2-2--2-2---6-6---4-4---2-2--2-2--2-2--2-2--- 
A----6-6---4-4---2-2--2-2--2-2--2-2---6-6---2-2---2-2--2-2--2-2--2-2--- 
E----4-4---2-2---0-0--0-0--0-0--0-0---4-4---------0-0--0-0--0-0--0-0---

BRIDGE		 
E--11-------------|--------------------------|-------------------------
B-----12---12-14--|--------------------------|-------------------------
G----------11-11--|--------------9-8---------|-------------------------
D-----------------|-9-8---9-11-------11-9-8--|--|RPT|------------------
A-----------------|-----9--------------------|---|4X|------------------
E-----------------|--------------------------|-------------------------

OUTRO							  (with repeated notes above)
E----------------------------------------------------------------------
B----------------------------------------------------------------------
G------------------------------1---RPT---------------------------------
D---6-6-6-4---6-6-6-4---6-6-4--2----4X------6----4---2---2-------------
A---6-6-6-4---6-6-6-4---6-6-4--2------------6----4---2---2-------------
E---4-4-4-2---4-4-4-2---4-4-2--0------------4----2---0---0-------------

END WITH 1st PART OF OUTRO
Comments