Taking Back Sunday - Ghost Man On Third Chords & Tabs

 

Ghost Man On Third Chords & Tabs

Taking Back Sunday Chords & Tabs

Version: 2 Type: Tab 0 ratings
1 star 2 stars 3 stars 4 stars 5 stars
comments

Ghost Man On Third Tab

Taking Back Sunday 
"Ghost Man on Third"
Tell all your friends 
Tabbed by: Jeff 

Verse: 
e|-----------------------------------------------------0-------------| 
B|---------7-------7--------7-------7---------5---5-3----3-----------| 
G|---------0-------0--------0-------0---------0---0-0------0---------| 
D|-----5---------5--------4-------4---------2-----2-2----------------| 
A|--7----7----7---7-----5--5-----5-5-------3-3----3-3----------------| 
E|-------------------------------------------------------------------| 

"Its times like these..." 
e|-------------------------------------------------| 
B|-------------------------------------------------| 
G|-----9---------7-------5-------------------------| 
D|-----X---------X-------X-------------------------| 
A|-----7---------5-------3-------------------------| 
E|-------------------------------------------------| 

Chorus: 

e|---------------------------------------------| 
B|---------------------------------------------| 
G|-----7--------9------5-----------------------| 
D|-----7--------9------5-----------------------| 
A|-----5--------7------3-----------------------| 
E|---------------------------------------------| 

Post Chorus: 
e|-------------------------------------------------| 
B|-------------------------------------------------| 
G|-----4h5p4------5s7-5----------------------------| 
D|-----------5-4-5---------------------------------| 
A|-------------------------------------------------| 
E|-------------------------------------------------| 

2nd verse: 
e|-------------------------------------------------| 
B|-------------------------------------------------| 
G|-----9---------7-------5-------------------------| 
D|-----X---------X-------X-------------------------| 
A|-----7---------5-------3-------------------------| 
E|-------------------------------------------------| 
throw in the post chorus riff after this every once in a while, 
listen to the cd for the exact times 
[ Tab from: http://www.guitartabs.cc/tabs/t/taking_back_sunday/ghost_man_on_third_tab_ver_2.html ]
Bridge: 
e|-------------------------------------------------| 
B|-------------------------------------------------| 
G|-----9---------7-------5---------7---------------| 
D|-----9---------7-------5---------7---------------| 
A|-----7---------5-------3---------5---------------| 
E|-------------------------------------------------| 

Lyrics: 
Jynx me something crazy 
Thinking if it's three 
then I'm as smooth as the skin 
rolls across the small of your back 
It's too bad it's not my style 
If you need me 
I'm out and on the parkway, 
patient and waiting for headlights, 
dressed in a fashion that's fitting to the 
inconsistencys of my moods 

It's times like these where silence means everything 
And no one is to know about this 
It's times like these, where silence means everything 
And no one is to know about this 

It's a campaign of distraction 
and revisionist history, oh 

It's a shame I don't think that they'll notice 
(it's a shame, I don't think that they'll notice) 
It's a shame I doubt they even care 
(it's a shame I doubt they even care) 
No one is to know about this 

It's a shame I don't think that they'll notice 
(it's a shame, I don't think that they'll notice) 
It's a shame I doubt they even care 
(it's a shame I doubt they even care) 
Don't let me down 

But whatever I have gettin myself into 
maybe has been slicing inches from my waist 
It's my fist vs. the bottle 
(and thank god you weren't there...) 
And that's how bad could this hurt 
or against I won't feel a thing 
(and thank god you weren't there...) 
I tell you all about it 
It's just not working out 
(...to watch me hit the bottle) 
not working out 

It's a campaign of distraction 
and revisionist history, oh 

It's a shame I don't think that they'll notice 
(it's a shame, I don't think that they'll notice) 
It's a shame I doubt they even care 
(it's a shame I doubt they even care) 
No one is to know about this 

It's a shame I don't think that they'll notice 
(it's a shame, I don't think that they'll notice) 
It's a shame I doubt they even care 
(it's a shame I doubt they even care) 
No one is to know about this 

Don't let me down 

This is why we were taught so much better than this 
This is why we were taught so much better than this 

This is what living like this does 
This is what living like this does 
This is what living like this does 
This is what living like this does 
This is what living like this does 
This is what living like this does 
This is what living like this does 
This is what living like this does 
This is what living like this does
Comments