Taking Back Sunday - Falling For You Chords & Tabs

 

Falling For You Chords & Tabs

Taking Back Sunday Chords & Tabs

Version: 1 Type: Tab 0 ratings
1 star 2 stars 3 stars 4 stars 5 stars
comments

Falling For You Tab

   
Verse 1
"This drowning sorrow shaking me..."
E |----------------------------------| 
B |----------------------------------|
G |-----------------88888888---------|
D |6-66666666666666-88888888-22222222|  x2
A |6-66666666666666-66666666-22222222|
E |4-44444444444444----------00000000|

E |-----------------------------------------|
B |-----------------------------------------|
G |6-5-6-5-88-5-8-5-10-1010101010-9-99-10/12|
D |-----------------------------------------|
A |-----------------------------------------|
E |-----------------------------------------|

E |--------------------------------------------|
B |--------------------------------------------|
G |6-5-6-5-88-5-8-5-15-1515151515-9-9-910910/13|
D |--------------------------------------------|
A |--------------------------------------------|
E |--------------------------------------------|

E |----------------------------------| 
B |----------------------------------|
G |-----------------88888888---------|
D |6-66666666666666-88888888-22222222|  
A |6-66666666666666-66666666-22222222|
E |4-44444444444444----------00000000|

"I'm Nervouse to feel deserved....."
E |-----------------------|
B |-----------------------|
G |13--13\12--12/13--13\12|
D |13--13\12--12/13--13\12|
A |11--11\10--10/11--11\10|
E |-----------------------|

Pre Chorus
"Are you going to.."
E |-------------------------| 
B |-------------------------|
G |-------------------------|  x2
D |66--55--3333333333333333-|  
A |66--55--3333333333333333-|
E |44--33--1111111111111111-|    


Chorus
"Poooorch, Falling for you..."
E |--------------------|
B |--------------------|
G |5-------------------|
D |5-x16--5-----6------|
A |3------5-x4--6-x12--|
E |-------3-----4------|

E |--------------------|
B |--------------------|
G |5-------------------|
D |5-x8--5-----6-------|
A |3------5-x4--6-x9---|
E |-------3-----4------|

Verse 2
E |-----------------------------------------|
B |-----------------------------------------|
G |6-5-6-5-88-5-8-5-10-1010101010-9-99-10/12|
D |-----------------------------------------|
A |-----------------------------------------|
E |-----------------------------------------|

E |--------------------------------------------|
B |--------------------------------------------|
G |6-5-6-5-88-5-8-5-15-1515151515-9-9-910910/13|
D |--------------------------------------------|
A |--------------------------------------------|
E |--------------------------------------------|
[ Tab from: http://www.guitartabs.cc/tabs/t/taking_back_sunday/falling_for_you_tab.html ]
E |----------------------------------| 
B |----------------------------------|
G |-----------------88888888---------|
D |6-66666666666666-88888888-22222222|  
A |6-66666666666666-66666666-22222222|
E |4-44444444444444----------00000000|

"become, My mind is ticking life away..."
E |----------|
B |----------|
G |13\12-x12-|
D |----------|
A |----------|
E |----------|

Pre Chorus
"Are you going to..."
E |-------------------------| 
B |-------------------------|
G |-------------------------|  x2
D |66--55--3333333333333333-|  
A |66--55--3333333333333333-|
E |44--33--1111111111111111-|    

Chorus
E |--------------------|
B |--------------------|
G |5-------------------|
D |5-x16--5-----6------|
A |3------5-x4--6-x12--|
E |-------3-----4------|

E |--------------------|
B |--------------------|
G |5-------------------|
D |5-x8---5-----6------|
A |3------5-x4--6-x9---|
E |-------3-----4------|

Bridge
"I'm dying to explain my heart..."
E |-------------------------|        
B |-------------------------|
G |---------6666------8888--|  
D |6-5-3333-6666-6666-8888--| 
A |6-5-3333-4444-6666-6666--|
E |4-3-1111------4444-------|

E |---------------------| 
B |---------------------|
G |-----6666------8888--|  
D |3333-6666-6666-8888--| 
A |3333-4444-6666-6666--|
E |1111------4444-------|

E |---------------------| 
B |---------------------|
G |-----6666------8888--|  x2
D |33---6666-6666-8888--| 
A |33---4444-6666-6666--|
E |11--------4444-------|


E |-----------------------------------------|
B |-----------------------------------------|
G |6-5-6-5-88-5-8-5-10-1010101010-9-99-10/12|
D |-----------------------------------------|
A |-----------------------------------------|
E |-----------------------------------------|

E |--------------------------------------------|
B |--------------------------------------------|
G |6-5-6-5-88-5-8-5-15-1515151515-9-9-910910/13|
D |--------------------------------------------|
A |--------------------------------------------|
E |--------------------------------------------|

Chorus
E |--------------------|
B |--------------------|
G |5-------------------|
D |5-x16--5-----6------|
A |3------5-x4--6-x12--|
E |-------3-----4------|

E |--------------------|
B |--------------------|
G |5-------------------|
D |5-x8--5-----6-------|
A |3------5-x4--6-x9---|
E |-------3-----4------|

Big Ending!!
E |-------------|
B |-------------|
G |-------------|
D |2---4---2---4|
A |2---4---2---4|
E |0---2---0---2|

E |-----|
B |-----|
G |-----|
D |----6|
A |343-6|
E |----4| 

There you go! My first tab, aged 15 :P I was just looking so hard for this song tabs
anywhere and it was nowhere to be seen so i decided to have a go at it myself! It
took a while and maybe it's not 100% but i tried my best, I hope it fits.  Listen
to the song for timing and the amount of times you play stuff. Please rate it, be
generous!! Enjoy, Jess xxxxxxxx
Comments