Taking Back Sunday - Error Operator Chords & Tabs

 

Error Operator Chords & Tabs

Taking Back Sunday Chords & Tabs

Version: 1 Type: Tab 0 ratings
1 star 2 stars 3 stars 4 stars 5 stars
comments

Error Operator Tab

   
Artist - Taking Back Sunday
Song - Error Operator
Album - Fantastic 4 sound track
Tabber - Tug, the guy who did the Follow the format tab :P

I heard this song when they supported Green day yesterday at MK bowl. Excellent stuff,
really shows the influence that Fred Mascherino is having on the band, when compared to
Breaking Pangaea's stuff.

So anyway, this tab is for Rhythm - Eddie reyes, and Lead - Fred Mascherino

Enjoy.

Guitar 1 - Lead - Fred

Riff 1
e----------------------------------|
B----------------------------------|
G-9-9-9-9-9-9-9/777--9-9-9-9-9-9-9-|
D-9-9-9-9-9-9-9/777--9-9-9-9-9-9-9-|
A-7-7-7-7-7-7-7/555--7-7-7-7-7-7-7-|
E----------------------------------|

Riff 2
e-----------------------|
B-----------------------|
G-------44444-----77777-|
D--222--44444-555-77777-|
A--222--22222-555-55555-|
E--000--------333-------|


Riff 3

e-------------------------------------|
B-------------------------------------|
G-55555555----------77777777-77777777-|
D-55555555-55555555-77777777-77777777-|
A-33333333-55555555-55555555-55555555-|
E----------33333333-------------------|

Riff 4

e----------------------------7-5-3--7-5-3v-|
B------------------------------------------|
G-55555555----------77777777---------------|
D-55555555-55555555-77777777---------------|
A-33333333-55555555-55555555---------------|
E----------33333333------------------------|

Riff 5

e------------------------|
B------------------------|
G-99999999-9999-77-66-44-|
D-xxxxxxxx-xxxx-xx-xx-xx-|
A-77777777-7777-55-44-22-|
E------------------------|

Riff 6

e----------------------------------------|
B----------------------------------------|
G-55555555-------------------------------|
D-55555555-55555555----------------------|
A-33333333-55555555----5--5h7-----5--5h7-|
E----------33333333-00--0-----000--0-----|

Riff 7

e-12p0-----------12p0-------------10p0----------10p0----------8p0----------8p0---------|
B------0-10h12-0------0-10h12-0--------0-8h10-0------0-8h10-0-----0-7h8-0------0-7h8-0-|
G--------------------------------------------------------------------------------------|
D--------------------------------------------------------------------------------------|
A--------------------------------------------------------------------------------------|
E--------------------------------------------------------------------------------------|

Riff 8
[ Tab from: http://www.guitartabs.cc/tabs/t/taking_back_sunday/error_operator_tab.html ]
e--------------------------|
B--------------------------|
G--------------------------|
D--------------------------|
A---5--5h7------5--5h7-----|
E-00--0-----0000--0----000-|

Order

Bass intro
Riff 1 x 1
Riff 2 x 2
Riff 1 x 1
Riff 3 x 1
Riff 4 x 1
Riff 2 x 2
Riff 1 x 1
Riff 5 x 2
Riff 3 x 1
Riff 4 x 1
Riff 3 x 1
Riff 6 x 1
Riff 7 x 14
Riff 3 x 1
Riff 4 x 1
Riff 3 x 1
Riff 4 x 1

-----------

Guitar 2 - Rhythm - Eddie

Riff 1

e----------------------------------|
B----------------------------------|
G-99999999-99999999-99999999-99999-|
D-xxxxxxxx-xxxxxxxx-xxxxxxxx-xxxxx-|
A-77777777-77777777-77777777-77777-|
E----------------------------------|

Riff 2
e-----------------------|
B-----------------------|
G-------44444-----77777-|
D--222--44444-555-77777-|
A--222--22222-555-55555-|
E--000--------333-------|

Riff 3

e-------------------------------------|
B-------------------------------------|
G-55555555----------77777777-77777777-|
D-55555555-55555555-77777777-77777777-|
A-33333333-55555555-55555555-55555555-|
E----------33333333-------------------|

Riff 4

e-------------------------------------|
B-------------------------------------|
G-99999999-99999999-99999999-99999999-|
D-xxxxxxxx-xxxxxxxx-xxxxxxxx-xxxxxxxx-|
A-77777777-77777777-77777777-77777777-|
E-------------------------------------|

Riff 5

e-------------|
B-------------|
G-99-77-66-44-|
D-------------|
A-------------|
E-------------|

Riff 6

e-------------------------------------|
B-------------------------------------|
G-99999999x77777777x66666666x44444444-|
D-xxxxxxxxxxxxxxxxxxxxxxxxxxxxxxxxxxx-|
A-77777777x55555555x44444444x22222222-|
E-------------------------------------|

Riff 7

e-------------------------------------------------------------------------------------|
B-------------------------------------------------------------------------------------|
G-99999999x11-11-11-11-11-11-11-11x12-12-12-12-12-12-12-12-12x14-14-14-14-14-14-14-14-|
D-xxxxxxxxxx--x--x--x--x--x--x--x--x--x--x--x--x--x--x--x--x--x--x--x--x--x--x--x--x--|
A-77777777x9--9--9--9--9--9--9--9-x10-10-10-10-10-10-10-10-10x12-12-12-12-12-12-12-12-|
E-------------------------------------------------------------------------------------|

Order

Bass Intro
Riff 1 x 1
Riff 2 x 4
Riff 3 x 2
Riff 2 x 4
Riff 4 x 2
Riff 3 x 4
Riff 5 x 10
Riff 4 x 1
Riff 6 x 2
Riff 7 x 1
Riff 6 x 1
Riff 3 x 4

Not heard it? go to the Fantastic 4 Soundtrack website, and have a listen.

Questions or Comments? Email me: tugmyster@gmail.com
Comments