Taking Back Sunday - Cute Without The E Chords & Tabs

 

Cute Without The E Chords & Tabs

Taking Back Sunday Chords & Tabs

Version: 4 Type: Tab 0 ratings
1 star 2 stars 3 stars 4 stars 5 stars
comments

Cute Without The E Tab

intro
|----------------|
|-0---0---0---0--|
|-4---4---4---4--|
|-2---2---2---1--|
|-4---0---2---2--|
|----------------|

1st guitar (verse)
|--------------------------------------------------------------------|
|--------------------------------------------------------------------|
|--------------------------------------------------------------------|
|--6-6-6-6-6-----7-7-7-7-7----4-4-4-4-4-------1---1-2-1--------------|
|--4-4-4-4-4-----7-7-7-7-7----2-2-2-2-2-----2---2------2-------------|
|----------------5-5-5-5-5-------------------------------------------|
    pm..........   ..........  ............................
[ Tab from: http://www.guitartabs.cc/tabs/t/taking_back_sunday/cute_without_the_e_tab_ver_4.html ]
2nd guitar (while 1st is going during the verse)
|--------------------------------------------------------------------|
|--------------------------------------------------------------------|
|--------------------------------------------------------------------|
|---9-9--9----9-9---9--9-9---9---------------------------------------|
|--------------------------------------------------------------------|
|--------------------------------------------------------------------|
^^ slightly palm muted

chorus
|--------------------------------------------------------------------|
|--------------------------------------------------------------------|
|--------------------------------------------------------------------|
|--6-6-6-6-6----4-4-4-4-4----9-9-9-9-9--7-7-7-7-7--------------------|
|--4-4-4-4-4----2-2-2-2-2----7-7-7-7-7--7-7-7-7-7--------------------|
|---------------------------------------5-5-5-5-5--------------------|

(verse after slow part)
|--------------------------------------------------------------------|
|--------------------------------------------------------------------|
|--------------------------------------------------------------------|
|---6--7--4------1--1-2-1--------------------------------------------|
|---4--7--2----2--2-------2------------------------------------------|
|------5-------------------------------------------------------------|


the guitar riff in the slow part is coming, my friend knows it and i dont.
so for now this is it and i am almost positive it is correct
Comments