Taking Back Sunday - Cute Without The E Chords & Tabs

 

Cute Without The E Chords & Tabs

Taking Back Sunday Chords & Tabs

Version: 2 Type: Tab 0 ratings
1 star 2 stars 3 stars 4 stars 5 stars
comments

Cute Without The E Tab

   
	Taking back sunday - Cute without the e  (cut from the team)

this is a good song that i hadn't been able to find tabs for. so here is a start;
its probably not perfect but i know its close and most people wont laugh at you for
playing it this way.  probably.

INTRO

e--------------
B-0---0---0---0
G-4---4---4---4
D-2---2---2---1
A-4---0---2---2
E--------------

VERSE

guitar 1

e------------------------------------------
B------------------------------------------
G-66666666----------444444444-------------- (Palm-muted)  
D-66666666-77777777-444444444---1---2-1---1
A-44444444-77777777-222222222-2---2-----2--
E----------55555555------------------------

guitar 2

e--------------------------------
B--------------------------------
G--------------------------------
D-----9-9-9----9-9-9-----9-9-9---
A--------------------------------
E--------------------------------

CHORUS
[ Tab from: http://www.guitartabs.cc/tabs/t/taking_back_sunday/cute_without_the_e_tab_ver_2.html ]
e--------------------------------
B--------------------------------
G-6-6-6-6-8-8-8-8-9-9-9-9--------   
D-6-6-6-6-8-8-8-8-9-9-9-9-7-7-7-7
A-4-4-4-4-6-6-6-6-7-7-7-7-7-7-7-7
E-------------------------5-5-5-5

BRIDGE 1   (2:01)

e---------------------------------
B-------9--------------9-10-9h10p9
G----9--------------9-------------   
D-9--------------9----------------
A---------------------------------
E---------------------------------

BRIDGE 2  (2:41)
e---------------------
B---------------------
G-6--2--4-------------   
D-6--2--4--2-1---2-1--
A-4--0--2------2-----2
E---------------------

OUTRO  (2:53)

e----------
B----------
G-6---2---4
D-6---2---4     
A-4---0---2
E----------

it sounds like there is something else guitar-related going on during this
part but im not sure what it is


INTRO    X2
VERSE    X6
CHORUS   X4
VERSE    X6
CHORUS   X4
BRIDGE 1 X2
BRIDGE 2 X4
OUTRO    X6 then once twice as fast


tabbed by sean connolly   veanconno@hotmail.com
Comments