Taking Back Sunday - Cute Without The E Acoustic Chords & Tabs

 

Cute Without The E Acoustic Chords & Tabs

Taking Back Sunday Chords & Tabs

Version: 2 Type: Tab 0 ratings
1 star 2 stars 3 stars 4 stars 5 stars
comments

Cute Without The E Acoustic Tab

   
-------------------------------------------------------------------------------
cute without the 'e'(cut from the team) acoustic  - TAKING BACK SUNDAY
-------------------------------------------------------------------------------
G'day this is my favourite song on the punk goes acoustic album.
No one has tabbed it yet so I thought I would. I included the lyrics at the bottom also.
So any comments your welcome to let me know, this is also my first tab
(well first that I have actually written down and sent in)
I'm pretty confident it is correct perhaps there are some slight errors
but I hey im not taking back Sunday am I!  So have fun  it's a rad, fun, easy song!   
enjoy!
(oh and could someone please tell taking back sunday to tour in australia!)

Album: Punk Goes Acoustic 
Tabbed by:-jOeL-
Email:...

Tuning: STANDARD


Intro- ...your lipstick, his collar don't bother angel, I know exactly...~*
Play 3 times through-
 
e|-----------------------------------------------------------|
B|-----------------------------------------------------------|
G|-------4---4------4---4------4---4-------------4-----------|
D|-----2---2------2---2------2---2----------1/2-----2----2---|
A|---4----------0----------2-----------0h2-------------4-----|
E|-----------------------------------------------------------|

Then end with this

e|-------------------------------------|
B|-------------------------------------|
G|-------4---4------4---4------4---4~--|
D|-----2---2------2---2------2---2-----|
A|---4----------0----------2-----------|
E|-------------------------------------|


First verse- ...when everything you get is, everything that you wanted...~*
Play 3 times through

e|-----------------------------------------------------------|
B|-----------------------------------------------------------|
G|-------4---4------4---4------4---4-------------4-----------|
D|-----2---2------2---2------2---2----------1/2-----2----2---|
A|---4----------0----------2-----------0h2-------------4-----|
E|-----------------------------------------------------------|

Then end on this

e|--------------------------------------|
B|--------------------------------------|
G|-------4---4------4---4------4-----6~-| end on C# power chord
D|-----2---2------2---2------2---2---6~-|   let it ring~
A|---4----------0----------2---------4~-|
E|--------------------------------------|


Chorus- ...and will you tell all your friends, you've got your gun to...~*
Play 4 times

e|--------------------------------------------|
B|--------------------------------------------|
G|---6-6-6-6--4-4-4-4-4--1-1-1-1--2-2-2-2-2---|
D|---6-6-6-6--4-4-4-4-4--2-2-2-2--2-2-2-2-2---|
A|---4-4-4-4--2-2-2-2-2--2-2-2-2--0-0-0-0-0---|
E|--------------------------------------------|



Pre-verse

e|-----------------------------------------------------------|
B|-----------------------------------------------------------|
G|-------4---4------4---4------4---4-------------4-----------|
D|-----2---2------2---2------2---2----------1/2-----2----2---|
A|---4----------0----------2-----------0h2-------------4-----|
E|-----------------------------------------------------------|

e|-------------------------------------|
B|-------------------------------------|
G|-------4---4------4---4------4---4~--|
D|-----2---2------2---2------2---2-----|
A|---4----------0----------2-----------|
E|-------------------------------------|


Second verse- ...don't bother trying to explain angel, I know exactly...~*
Play 2 times through

e|-----------------------------------------------------------|
B|-----------------------------------------------------------|
G|-------4---4------4---4------4---4-------------4-----------|
D|-----2---2------2---2------2---2----------1/2-----2----2---|
A|---4----------0----------2-----------0h2-------------4-----|
E|-----------------------------------------------------------|

Then this once

e|------------------------------------------------------|
B|------------------------------------------------------|
G|-------4---4------4---4------4---4--------4-----------|
D|-----2---2------2---2------2---2--------2----2-----2--|
A|---4----------0----------2-----------2----------2-----|
E|------------------------------------------------------|

Then end on this

e|-----------------------------------------------------|
B|-----------------------------------------------------|
G|-------4---4------4---4------------------4-----------|
D|-----2---2------2---2------2----2-----2-----2-----2--|
A|---4----------0----------2----2----2-----------2-----|
E|-----------------------------------------------------|


Chorus- ...and will you tell all your friends, you've got your gun to my...~*
Play 3 times
[ Tab from: http://www.guitartabs.cc/tabs/t/taking_back_sunday/cute_without_the_e_acoustic_tab_ver_2.html ]
e|--------------------------------------------|
B|--------------------------------------------|
G|---6-6-6-6--4-4-4-4-4--1-1-1-1--2-2-2-2-2---|
D|---6-6-6-6--4-4-4-4-4--2-2-2-2--2-2-2-2-2---|
A|---4-4-4-4--2-2-2-2-2--2-2-2-2--0-0-0-0-0---|
E|--------------------------------------------|

Then end with this once

e|--------------------------------------------|
B|--------------------------------------------|
G|---x-6-6-6--x-4-4-4-4--x-1-1-1--x-2-2-2-2---|
D|---x-6-6-6--x-4-4-4-4--x-2-2-2--x-2-2-2-2---|
A|---x-4-4-4--x-2-2-2-2--x-2-2-2-x-0-0-0-0---|
E|--------------------------------------------|


Bridge 1-...the only thing I regret is that I, I never let you hold me...~*
Play 10 times

e|---------------------------------------|
B|---------------------------------------|
G|-------6----------------9-------7------|
D|-----6---6-----9------9---9---7---7----|
A|---4---------9---9--7-------5----------|
E|-----------7---------------------------|

Then this twice

e|---------------------------------------|
B|---------------------------------------|
G|-------6-6--------------9-9------7-7---|
D|-----6---6-----9-9----9---9----7---7---|
A|---4-----4---9---9--7-----7--5-----5---|
E|-----------7-----7---------------------|


Bridge 2- ...and all of this, it was all your fault, and all of this...~*
Play 4 times
                                     Last time play this
e|------------------------| /  e |-------------------|
B|------------------------| /  B |-------------------|
G|---6-6-x--2--4-4-x-4-4--| /  G |--4-4-4-4-4-4-4-4--|
D|---6-6-x--2--4-4-x-4-4--| /  D |--4-4-4-4-4-4-4-4--|
A|---4-4-x--0--2-2-x2-2--| /  A |--2-2-2-2-2-2-2-2--|
E|------------------------| /  E |-------------------|


Outro- ...I stayed wrecked and jealous for this, for this simple...~*
Play 6 times through-


e|---------------------------------------------|
B|---------------------------------------------|
G|---6-6-6-6--2-2-2-2-2-2--4-4-4-4-4-4-4-4-4---|
D|---6-6-6-6--2-2-2-2-2-2--4-4-4-4-4-4-4-4-4---|
A|---4-4-4-4--0-0-0-0-0-0--2-2-2-2-2-2-2-2-2---|
E|---------------------------------------------|

End on-

e|-----------------|
B|-----------------|
G|---6---2---4~----|
D|---6---2---4~----| let it ring out.
A|---4---0---2~----|
E|-----------------|

| /  slide up
| \  slide down
| h  hammer-on
| p  pull-off
| ~  vibrato
| +  harmonic
| x  Mute note
===============================================================================

well thats it! I just wanted to say hi to all my mates, greg, fish, alex, KAT, jason
and sam, and I LOVE YOU MICHON! Here's the lyrics, cya


Lyrics- 

Your lipstick, his collar.. don't bother Angel 
I know exactly what goes on 

When everything you'll get is 
everything that you've wanted, princess 
(well which would you prefer) 
My finger on the trigger, or 
(me face down, down across your floor) 
Me face down, down across your floor 
(me face down, down across your floor) 
Well just so long as this thing's loaded 

And will you tell all your friends 
you've got your gun to my head 
This all was only wishful thinkin, 
this all was only wishful thinkin 
And will you tell all your friends 
you've got your gun to my head 
This all was only wishful thinkin, 
this all was only wishful thinkin 
let's go... 

Don't bother trying to explain Angel 
I know exactly what goes on when you're on and 
How about I'm outside of your window 
(how about I'm outside of your window) 
Watchin him keep the details covered 
You're such a sucker (you're such a sucker) 
for a sweet talker, yeah 

And will you tell all your friends 
you've got your gun to my head 
This all was only wishful thinkin, 
this all was only wishful thinkin 
(the only thing that I regret is that I, I never let you hold me back) 
And will you tell all your friends 
you've got your gun to my head 
This all was only wishful thinkin, 
this all was only wishful thinkin 

Hoping for the best just hoping nothing happens 
A thousand clever lines unread on clever napkins 
I wil never ask if you don't ever tell me 
I know you well enough to know you never loved me 
Hoping for the best just hoping nothing happens 
A thousand clever lines unread on clever napkins 
I will never ask if you don't ever tell me 
I know you well enough to know you never loved me 
Hoping for the best just hoping nothing happens 
A thousand clever lines unread on clever napkins 
I will never ask if you don't ever tell me 
I know you well enough to know... 

Why can't I feel anything 
from anyone other than you? 
Why can't I feel anything 
from anyone other than you? 

And all of this was all your fault 
And all of this 

(I stay jealous) 
I stay wrecked and jealous for this, 
for this simple reason 
I just need to keep you in mind 
as something larger than life 
(she'll destroy us all before she's through 
and find a way to blame somebody else) 
I stay wrecked and jealous for this, 
for this simple reason 
I just need to keep you in mind 
as something larger than life 
(she'll destroy us all before she's through 
and find a way to blame somebody else) 
I stay wrecked and jealous for this, 
for this simple reason 
I just need to keep you in mind 
as something larger than life!
Comments