Taking Back Sunday - Bonus Mosh Part 2 Chords & Tabs

 

Bonus Mosh Part 2 Chords & Tabs

Taking Back Sunday Chords & Tabs

Version: 1 Type: Bass Tab 0 ratings
1 star 2 stars 3 stars 4 stars 5 stars
comments

Bonus Mosh Part 2 Bass Tab

   
-------------------------------------------------------------------------------
			     BONUS MOSH PART II. - Taking Back Sunday
-------------------------------------------------------------------------------

 Tabbed By : bomb_ars_punani
 e-mail: No.

 Tuning: Standard
 3/4 time

0:00
Intro 
	[three bars rest]

 |1+2+3+|1+2+3+|1+2+3+|

0:03

G||------|------|
D||------|------|
A||------|------|
E||--7777|7\0---|
   |pm------|

0:09
Verse I
	So scream I heard about your message...

G|------|------|------|
D|------|------|------|
A|--5---|--7---|------| x4
E|3---3-|5---5-|7-----|

G|------|
D|------|
A|----5-|
E|5h7---|

0:28
Chorus
	It's looooooooove...

G|------|------|------|------|
D|------|------|------|------|
A|------|------|------|------|
E|333333|555555|777777|77575-| x2

G|------|------|------|------|
D|------|------|------|------|
A|---555|---555|---555|---555| x2
E|333---|555---|777---|555---|

0:47
Verse II
	I said I guess the inconsistencies...

G|------|------|------|
D|------|------|------|
A|--5---|--7---|------| x4
E|3---3-|5---5-|7-----|

G|------|
D|------|
A|777555|
E|------|

1:07
Chorus
	It's looooooove...

G|------|------|------|------|
D|------|------|------|------|
A|------|------|------|------| x2
E|333333|555555|777777|77575-| 

G|------|------|------|------|
D|------|------|------|------|
A|---555|---555|---555|---555|
E|333---|555---|777---|555---|
[ Tab from: http://www.guitartabs.cc/tabs/t/taking_back_sunday/bonus_mosh_part_2_btab.html ]
G|------|------|
D|------|------|
A|---555|---555|
E|333---|555---|

1:23
Bridge
	The keys to the castle....

G|------|------|------|------|------|------|------|------|
D|------|------|------|------|------|------|------|------|
A|------|------|------|------|------|------|------|------| x2
E|777---|777---|777---|777---|333---|333---|333---|333---|

1:42
Bass Solo
	No way out...

G|------|------|------|------|
D|9-----|7-----|------|------|
A|------|------|7---9-|10----| x6
E|------|------|------|------|

2:13
Outro chorus
	I wanted you for nothing more...

G|------|| |------|------|------|------|------|------|------|------| ||
D|------||o|------|------|------|------|000000|000000|------|------|o||
A|------||o|------|------|222222|222222|------|------|------|------|o|| x3
E|----2-|| |333333|333333|------|------|------|------|333333|333333| ||

G|------|------|------|------|------|------|
D|------|------|------|------|000000|000000|
A|------|------|222222|222222|------|------| x2
E|333333|333333|------|------|------|------|

2:51
Outro
	If that's what you wanted....

G|------|------|------|------|
D|------|------|------|------|
A|------|------|------|------|
E|333---|555---|777---|777---|

G|------|------|------|------||
D|------|------|------|------||
A|------|------|------|------||
E|333---|555---|777777|7\0---||

| /  slide up
| \  slide down
| h  hammer-on
| p  pull-off
| ~  vibrato
| +  harmonic
| x  Mute note
===============================================================================
Comments