Taking Back Sunday - Bike Scene Chords & Tabs

 

Bike Scene Chords & Tabs

Taking Back Sunday Chords & Tabs

Version: 1 Type: Tab 0 ratings
1 star 2 stars 3 stars 4 stars 5 stars
comments

Bike Scene Tab

Artist: Taking Back Sunday
Album: Tell All You Friends
Song: Bike Scene
Tabbed By: JustnHav
Key:
x - mute
h - hammer on
/ - slide
p - pull off

Intro
----------------------------------------|
----------------------------------------|
--5---12-10-----------------------------|
--5----x-x------------------------------|
--3---10-8------------------------------|
----------------------------------------|

Verse 1
------------------------------------------|
------------------------------------------|
----5-4---5-4---5-4---5-4---5-4--5-4------|
---5-----5-----5-----5-----5----5-----3---|
-33----00----33----33----00----------3----|
-------------------------------3----1-----|

Chorus 
----------------------------------------|
----------------------------------------|
-5-7-9-10-9-----------------------------|
-x-x-x--x-x---7-5-3-3-------------------|
-3-5-7--8-7---7-5-3-3-------------------|
--------------5-3-1-1-------------------|
                    x
[ Tab from: http://www.guitartabs.cc/tabs/t/taking_back_sunday/bike_scene_tab.html ]
2nd verse
----------------------------------------|
----------------------------------------|
-5--12--10-9----10-12-10-9-10-7---------|
-x---x---x-x-----x--x--x-x--x-x---------|
-3--10---8-7-----8-10--8-7--9-5---------|
----------------------------------------|
         End of lead part ^ 

Chorus...

BREAKDOWN                         
-------------------------------------------------|
-----------------------------0-----5--5----------|
----5-4---5-4---5-4---5-4h5p4------4--4----------|
---5-----5-----5-----5-------------5--5----------|
-3------3----0-----0---------------3--0----------|
-------------------------------------------------|

----------------------------------------|
----------------------------------------|
-5---------------------5----------------|
-5--7--3--5------------5--7-------------|
-3--7--3--5------------3--7-------------|
----5--1--3---------------5-------------|

Outro
----------------------------------------|
----------------------------------------|
---12-10-9-10-9/10/9----5---------------|
----x--x-x--x-x--x-x----x---------------|
---10--8-7--8-7/-8/7----3---------------|
----------------------------------------|
Comments