Taking Back Sunday - A Decade Under The Influence Chords & Tabs

 

A Decade Under The Influence Chords & Tabs

Taking Back Sunday Chords & Tabs

Version: 6 Type: Tab 0 ratings
1 star 2 stars 3 stars 4 stars 5 stars
comments

A Decade Under The Influence Tab

   
-------------------------------------------------------------------------------
            A Decade Under the Influence - Taking Back Sunday
-------------------------------------------------------------------------------
Tabbed by: Adam
Email: Adam11487@aol.com

Tuning: Drop D (DADGBE)

INTRO:
Gtr. 1 (clean)
e|------0-0-----0-0-----0-0-----0-0-----0-0-----0-0-----0-0-----0-0----------|
B|------0-0-----0-0-----0-0-----0-0-----0-0-----0-0-----0-0-----0-0----------|
G|------6-6-----6-6-----6-6-----6-6-----6-6-----6-6-----6-6-----6-6----------|
D|--7-7-7-7-7-7-7-7-7-7-7-7-7-7-7-7-7-7-7-7-7-7-7-7-7-7-7-7-7-7-7-7----------|
A|--7-7-----7-7-----7-7-----7-7-----7-7-----777-----7-7-----7-7--------------|
D|--7-7-----7-7-----7-7-----7-7-----7-7-----7-7-----7-7-----7-7--------------|

Gtr. 2
e|---------------------------------------------------------------------------|
B|---------------------------------------------------------------------------|
G|---------------------------------------------------------------------------|
D|---------------------DOESN'T-PLAY-YET!-------------------------------------|
A|---------------------------------------------------------------------------|
D|---------------------------------------------------------------------------|

Gtr. 1 (clean)
e|--0-0-0-0-0-0--0---0-0-0-0-0-0--0---0-0-0-0-0-0--0---0-0-0-0-0-0--0--------|
B|--0-0-0-0-0-0--0---0-0-0-0-0-0--0---0-0-0-0-0-0--0---0-0-0-0-0-0--0--------|
G|--6-6-6-----6--6---6-6-6-----6--6---6-6-6-----6--6---6-6-6-----6--6--------|
D|--7-7-7-----7--7---7-7-7-----7--7---7-7-7-----7--7---7-7-7-----7--7--------|
A|--0-0-0-----0--0---0-0-0-----0--0---0-0-0-----0--0---0-0-0-----0--0--------|
D|--0-0-0-----0--0---0-0-0-----0--0---0-0-0-----0--0---0-0-0-----0--0--------|

Gtr. 2 (distortion)
e|---------------------------------------------------------------------------|
B|---------------------------------------------------------------------------|
G|--7---7---7---7---7---7---7---7---7---7---7---7---7---7---7---7------------|
D|--7---7---7---7---7---7---7---7---7---7---7---7---7---7---7---7------------|
A|--5-5-5-5-5-5-5-5-5-5-5-5-5-5-5-5-5-5-5-5-5-5-5-5-5-5-5-5-5-5-5-5----------|
D|--0-0-0-0-0-0-0-0-0-0-0-0-0-0-0-0-0-0-0-0-0-0-0-0-0-0-0-0-0-0-0-0----------|

===============================================================================

VERSE:
Gtr. 1 (clean) 4X
e|------0-0-----0-0-----0-0-----0-0--0-0-0-0-0-0--0---0-0-0-0-0-0--0---------|
B|------0-0-----0-0-----0-0-----0-0--0-0-0-0-0-0--0---0-0-0-0-0-0--0---------|
G|------6-6-----6-6-----6-6-----6-6--6-6-6-----6--6---6-6-6-----6--6---------|
D|--7-7-7-7-7-7-7-7-7-7-7-7-7-7-7-7--7-7-7-----7--7---7-7-7-----7--7---------|
A|--7-7-----7-7-----7-7-----7-7------0-0-0-----0--0---0-0-0-----0--0---------|
D|--7-7-----7-7-----7-7-----7-7------0-0-0-----0--0---0-0-0-----0--0---------|

Gtr. 2 (distortion)1st, 2nd, and 4th time
e|---------------------------------------------------------------------------|
B|---------------------------------------------------------------------------|
G|--9---9---9---9---9---9---9---9----6---6---6---6---6---6---6---6-----------|
D|--7---7---7---7---7---7---7---7----7---7---7---7---7---7---7---7-----------|
A|---------------------------------------------------------------------------|
D|---------------------------------------------------------------------------|
Gtr. 2 (distortion) 3rd time do this:
e|---------------------------------------------------------------------------|
B|--------------------------9---9----9---9---9---9---9---9---9---9-----------|
G|--9---9---9---9---9---9---x---x----x---x---x---x---x---x---x---x-----------|
D|--7---7---7---7---7---7---7---7----7---7---7---7---7---7---7---7-----------|
A|---------------------------------------------------------------------------|
D|---------------------------------------------------------------------------|

===============================================================================

CHORUS:
Gtr. 1 & Gtr. 2 (distortion) 3X
e|---------------------------------------------------------------------------|
B|---------------------------------------------------------------------------|
G|--9---9---9---9---9---9---9---9-----9---9---9---9---9---9---9---9----------|
D|--7---7---7---7---7---7---7---7-----0---0---0---0---0---0---0---0----------|
A|--7-7-7-7-7-7-7-7-7-7-7-7-7-7-7-7---0-0-0-0-0-0-0-0-0-0-0-0-0-0-0-0--------|
D|--7-7-7-7-7-7-7-7-7-7-7-7-7-7-7-7---0-0-0-0-0-0-0-0-0-0-0-0-0-0-0-0--------|

===============================================================================

VERSE AGAIN

2ND CHORUS AND BRIDGE:
Gtr. 1 & Gtr. 2 (distortion) 
e|---------------------------------------------------------------------------|
B|---------------------------------------------------------------------------|
G|--9---9---9---9---9---9---9---9-----9---9---9---9---9---9---9---9----------|
D|--7---7---7---7---7---7---7---7-----0---0---0---0---0---0---0---0----------|
A|--7-7-7-7-7-7-7-7-7-7-7-7-7-7-7-7---0-0-0-0-0-0-0-0-0-0-0-0-0-0-0-0--------|
D|--7-7-7-7-7-7-7-7-7-7-7-7-7-7-7-7---0-0-0-0-0-0-0-0-0-0-0-0-0-0-0-0--------|

e|---------------------------------------------------------------------------|
B|---------------------------------------------------------------------------|
G|--9---9---9---9---9---9---9---9-----9---9---9---9---9---9---9---9----------|
D|--7---7---7---7---7---7---7---7-----0---0---0---0---0---0---0---0----------|
A|--7-7-7-7-7-7-7-7-7-7-7-7-7-7-7-7---0-0-0-0-0-0-0-0-0-0-0-0-0-0-0-0--------|
D|--7-7-7-7-7-7-7-7-7-7-7-7-7-7-7-7---0-0-0-0-0-0-0-0-0-0-0-0-0-0-0-0--------|

e|---------------------------------------------------------------------------|
B|---------------------------------------------------------------------------|
G|--------6-6-6-6-6-6-6-6-6-6-6-6-6-6-4-4-4-4-4-4-4-4-4-4-4-4-4-4-4-4-4------|
D|--------4-4-4-4-4-4-4-4-4-4-4-4-4-4-2-2-2-2-2-2-2-2-2-2-2-2-2-2-2-2-2------|
A|--9/2\4-4-4-4-4-4-4-4-4-4-4-4-4-4-4-2-2-2-2-2-2-2-2-2-2-2-2-2-2-2-2-2------|
D|--9/2\4-4-4-4-4-4-4-4-4-4-4-4-4-4-4-2-2-2-2-2-2-2-2-2-2-2-2-2-2-2-2-2------|

e|---------------------------------------------------------------------------|
B|----------------------------------3-3-3-3-3-3-3-3-3-3-3-3-3-3-3-3----------|
G|----------------------------------2-2-2-2-2-2-2-2-2-2-2-2-2-2-2-2----------|
D|--0-0-0-0-0-0-0-0-0-0-0-0-0-0-0-0-0-0-0-0-0-0-0-0-0-0-0-0-0-0-0-0----------|
A|--0-0-0-0-0-0-0-0-0-0-0-0-0-0-0-0-0-0-0-0-0-0-0-0-0-0-0-0-0-0-0-0----------|
D|--0-0-0-0-0-0-0-0-0-0-0-0-0-0-0-0-0-0-0-0-0-0-0-0-0-0-0-0-0-0-0-0----------|
PM  . . . . . . . . . . . . . . . . . . . . . . . . 
e|---------------------------------------------------------------------------|
B|---------------------------------------------------------------------------|
G|--7-7-7-6-6-6-6-6--6--6--6---7-7-7-6-6-6-6-6--6--6-------------------------|
D|--4-4-4-4-4-4-4-4--4--4--4---4-4-4-4-4-4-4-4--4--4-------------------------|
A|--4-4-4-4-4-4-4-4--4--4--4---4-4-4-4-4-4-4-4--4--4-------------------------|
D|--4-4-4-4-4-4-4-4--4--4--4---4-4-4-4-4-4-4-4--4--4-------------------------|
[ Tab from: http://www.guitartabs.cc/tabs/t/taking_back_sunday/a_decade_under_the_influence_tab_ver_6.html ]
e|---------------------------------------------------------------------------|
B|-----3-3-3-3-3-3-3-3-3-3-3-3-3-3-3-3-3-3-3-3-3-3-3-3-3---------------------|
G|-----2-2-2-2-2-2-2-2-2-2-2-2-2-2-2-2-2-2-2-2-2-2-2-2-2---------------------|
D|--0--0-0-0-0-0-0-0-0-0-0-0-0-0-0-0-0-0-0-0-0-0-0-0-0-0---------------------|
A|--0--0-0-0-0-0-0-0-0-0-0-0-0-0-0-0-0-0-0-0-0-0-0-0-0-0---------------------|
D|--0--0-0-0-0-0-0-0-0-0-0-0-0-0-0-0-0-0-0-0-0-0-0-0-0-0---------------------|

e|---------------------------------------------------------------------------|
B|---------------------------------------------------------------------------|
G|--7-7-7-6-6-6-6-6--6--6--6---7-7-7-6-6-6-6-6--6--6-------------------------|
D|--4-4-4-4-4-4-4-4--4--4--4---4-4-4-4-4-4-4-4--4--4-------------------------|
A|--4-4-4-4-4-4-4-4--4--4--4---4-4-4-4-4-4-4-4--4--4-------------------------|
D|--4-4-4-4-4-4-4-4--4--4--4---4-4-4-4-4-4-4-4--4--4-------------------------|

e|---------------------------------------------------------------------------|
B|-----3-3-3-3-3-3-3-3-3-3-3-3-3-3-3-3-3-3-3-3-3-3-3-3-3---------------------|
G|-----2-2-2-2-2-2-2-2-2-2-2-2-2-2-2-2-2-2-2-2-2-2-2-2-2---------------------|
D|--0--0-0-0-0-0-0-0-0-0-0-0-0-0-0-0-0-0-0-0-0-0-0-0-0-0---------------------|
A|--0--0-0-0-0-0-0-0-0-0-0-0-0-0-0-0-0-0-0-0-0-0-0-0-0-0---------------------|
D|--0--0-0-0-0-0-0-0-0-0-0-0-0-0-0-0-0-0-0-0-0-0-0-0-0-0---------------------|

e|---------------------------------------------------------------------------|
B|---------------------------------------------------------3-----------------|
G|--7-7-7-6-6-6-6-6--6--6--6---7-7-7-6-6-6-6-6--6--6-------2-----------------|
D|--4-4-4-4-4-4-4-4--4--4--4---4-4-4-4-4-4-4-4--4--4-------0---LET-RING!-----|
A|--4-4-4-4-4-4-4-4--4--4--4---4-4-4-4-4-4-4-4--4--4-------0-----------------|
D|--4-4-4-4-4-4-4-4--4--4--4---4-4-4-4-4-4-4-4--4--4-------0-----------------|

===============================================================================

INTERLUDE:
Gtr. 1 (clean) 4X
e|--0-----------------0-----------------2-----------------0------------------|
B|--0-----------------0-----------------3-----------------2------------------|
G|--2-----------------1-----------------2-----------------2------------------|
D|--4----LET-RING-----2----LET-RING-----0----LET-RING-----0----LET-RING------|
A|--4-----------------2-----------------0-----------------0------------------|
D|--4-----------------2-----------------0-----------------0------------------|

Gtr. 2 (clean) 4X
e|----------0-----------------0---------------------------0------------------|
B|-------------0-----------------0------------------------2------------------|
G|--2-----------------------------------2-----------------2------------------|
D|--4-----------------2-----------------0-----------------0------------------|
A|--4-----------------2-----------------0-----------------0------------------|
D|--4-----------------2-----------------0-----------------0------------------|

e|---------------------------------------------------------------------------|
B|---------------------------------------------------------------------------|
G|---------------------------------------------------------------------------|
D|--0-0-0-0-0-0-0-0-0-0-0-0-0-0-0-0-0-0--------------------------------------|
A|--0-0-0-0-0-0-0-0-0-0-0-0-0-0-0-0-0-0--------------------------------------|
D|--0-0-0-0-0-0-0-0-0-0-0-0-0-0-0-0-0-0--------------------------------------|
PM  . . . . . . . . . . . . . . . . . .

===============================================================================

OUTRO:
Gtr. 1 & Gtr. 2 (distortion)
e|---------------------------------------------------------------------------|
B|---------------------------------------------------------------------------|
G|--6-6-6-6-6-6-6-6-6-6-6-6-6-6-4-4-4-4-4-4-4-4-4-4-4-4-4-4------------------|
D|--4-4-4-4-4-4-4-4-4-4-4-4-4-4-2-2-2-2-2-2-2-2-2-2-2-2-2-2------------------|
A|--4-4-4-4-4-4-4-4-4-4-4-4-4-4-2-2-2-2-2-2-2-2-2-2-2-2-2-2------------------|
D|--4-4-4-4-4-4-4-4-4-4-4-4-4-4-2-2-2-2-2-2-2-2-2-2-2-2-2-2------------------|

e|---------------------------------------------------------------------------|
B|--3-3-3-3-3-3-3-3-3-3-3-3-3-3-3-3-3-3-3-3-3-3-3-3-3-3-3-3------------------|
G|--2-2-2-2-2-2-2-2-2-2-2-2-2-2-2-2-2-2-2-2-2-2-2-2-2-2-2-2------------------|
D|--0-0-0-0-0-0-0-0-0-0-0-0-0-0-0-0-0-0-0-0-0-0-0-0-0-0-0-0------------------|
A|--0-0-0-0-0-0-0-0-0-0-0-0-0-0-0-0-0-0-0-0-0-0-0-0-0-0-0-0------------------|
D|--0-0-0-0-0-0-0-0-0-0-0-0-0-0-0-0-0-0-0-0-0-0-0-0-0-0-0-0------------------|

e|---------------------------------------------------------------------------|
B|---------------------------------------------------------------------------|
G|--6-6-6-6-6-6-6-6-6-6-6-6-6-6-4-4-4-4-4-4-4-4-4-4-4-4-4-4------------------|
D|--4-4-4-4-4-4-4-4-4-4-4-4-4-4-2-2-2-2-2-2-2-2-2-2-2-2-2-2------------------|
A|--4-4-4-4-4-4-4-4-4-4-4-4-4-4-2-2-2-2-2-2-2-2-2-2-2-2-2-2------------------|
D|--4-4-4-4-4-4-4-4-4-4-4-4-4-4-2-2-2-2-2-2-2-2-2-2-2-2-2-2------------------|

e|---------------------------------------------------------------------------|
B|--3-3-3-3-3-3-3-3-3-3-3-3-3-3-3-3-3-3-3-3-3-3-3-3-3-3-3-3------------------|
G|--2-2-2-2-2-2-2-2-2-2-2-2-2-2-2-2-2-2-2-2-2-2-2-2-2-2-2-2------------------|
D|--0-0-0-0-0-0-0-0-0-0-0-0-0-0-0-0-0-0-0-0-0-0-0-0-0-0-0-0------------------|
A|--0-0-0-0-0-0-0-0-0-0-0-0-0-0-0-0-0-0-0-0-0-0-0-0-0-0-0-0------------------|
D|--0-0-0-0-0-0-0-0-0-0-0-0-0-0-0-0-0-0-0-0-0-0-0-0-0-0-0-0------------------|

e|---------------------------------------------------------------------------|
B|---------------------------------------------------------------------------|
G|--6-6-6-6-6-6-6-6-6-6-6-6-6-6-4-4-4-4-4-4-4-4-4-4-4-4-4-4------------------|
D|--4-4-4-4-4-4-4-4-4-4-4-4-4-4-2-2-2-2-2-2-2-2-2-2-2-2-2-2------------------|
A|--4-4-4-4-4-4-4-4-4-4-4-4-4-4-2-2-2-2-2-2-2-2-2-2-2-2-2-2------------------|
D|--4-4-4-4-4-4-4-4-4-4-4-4-4-4-2-2-2-2-2-2-2-2-2-2-2-2-2-2------------------|

e|---------------------------------------------------------------------------|
B|--3-3-3-3-3-3-3-3-3-3-3-3-3-3-3-3-3-3-3-3-3-3-3-3-3-3-3-3------------------|
G|--2-2-2-2-2-2-2-2-2-2-2-2-2-2-2-2-2-2-2-2-2-2-2-2-2-2-2-2------------------|
D|--0-0-0-0-0-0-0-0-0-0-0-0-0-0-0-0-0-0-0-0-0-0-0-0-0-0-0-0------------------|
A|--0-0-0-0-0-0-0-0-0-0-0-0-0-0-0-0-0-0-0-0-0-0-0-0-0-0-0-0------------------|
D|--0-0-0-0-0-0-0-0-0-0-0-0-0-0-0-0-0-0-0-0-0-0-0-0-0-0-0-0------------------|

e|---------------------------------------------------------------------------|
B|---------------------------------------------------------------------------|
G|--6-6-6-6-6-6-6-6-6-6-6-6-6-6-4-4-4-4-4-4-4-4-4-4-4-4-4-4------------------|
D|--4-4-4-4-4-4-4-4-4-4-4-4-4-4-2-2-2-2-2-2-2-2-2-2-2-2-2-2------------------|
A|--4-4-4-4-4-4-4-4-4-4-4-4-4-4-2-2-2-2-2-2-2-2-2-2-2-2-2-2------------------|
D|--4-4-4-4-4-4-4-4-4-4-4-4-4-4-2-2-2-2-2-2-2-2-2-2-2-2-2-2------------------|

e|---------------------------------------------------------------------------|
B|--3------------------------------------------------------------------------|
G|--2------------------------------------------------------------------------|
D|--0---------L-E-T---R-I-N-G-!----------------------------------------------|
A|--0------------------------------------------------------------------------|
D|--0------------------------------------------------------------------------|

| /  slide up
| \  slide down
| h  hammer-on
| p  pull-off
| ~  vibrato
| +  harmonic
| x  Mute note
===============================================================================
Comments