Taking Back Sunday - A Decade Under The Influence Chords & Tabs

 

A Decade Under The Influence Chords & Tabs

Taking Back Sunday Chords & Tabs

Version: 1 Type: Tab 2 ratings
1 star 2 stars 3 stars 4 stars 5 stars
comments

A Decade Under The Influence Tab

Taking back Sunday
Guitar tab universe
Greenday2904

       Awesome song I love taking back Sunday. You should go buy this album now. There’s two guitars in this song. Please don’t copy me. This is 110% correct.

Intro (guitar 1)
  [------0------------0------------0----------0-------------0----------0--------------0---------0------]
  [------0------------0------------0----------0-------------0----------0--------------0---------0------]
  [------6------------6------------6----------6-------------6----------6--------------6---------6------]
  [------7------------7------------7----------7-------------7----------7--------------7---------7------]
  [---------------------------------------------------------------------------------------------------------]
  [--77-------777---------777------------777--------777---------777---------777--------777----------]
Intro (guitar 2)
  [--------------------------------------------------]             palm mute when guitar 1 plays first
  [--------------------------------------------------]             line. Play non-palm mute? that sounds    
  [----7-7-7-7-7-7-7-7-7-7-7-7-7-7-7-7---------------]             weird. anyway, play non palm muted
  [----7-7-7-7-7-7-7-7-7-7-7-7-7-7-7-7---------------]              when guitar one plays second line.
  [----5-5-5-5-5-5-5-5-5-5-5-5-5-5-5-5---------------]
  [--------------------------------------------------]

Intro cont. (guitar 1)
  [--------000-----000-----000-----0-----]
  [--------000-----000-----000-----0-----]         like I said before play non palm- geez what do you say?
  [----777-666-777-666-777-666-777-6-----]                                   just look above
  [----777-777-777-777-777-777-777-7-----]
  [----555-----555-----555-----555-------]
  [--------------------------------------]
______________________________________________________________________________________________

Verse (guitar 1)
  [--------------------------------------000------000-----000--]
  [--------------------------------------000------000-----000--]   I know it doesn’t seem right -but it is. 
  [--6-6-6-6-6-6-6-6-6-6-6-6-6-6-6---777-666--777-666-777-666--]   the thing is you hear guitar 2 over it.
  [--7-7-7-7-7-7-7-7-7-7-7-7-7-7-7---777-777--777-777-777-777--]
  [---x-x-x-x-x-x-x-x-x-x-x-x-x-x-x--555------555-----555------]
  [--7-7-7-7-7-7-7-7-7-7-7-7-7-7-7-----------------------------]

Verse (guitar 2)
  [--------------------------------------------------------------------------------------]
  [--------------------------------------------------------------------------------------]
  [----6-6-6-6-6-6-6-6-6-6--7-7-7-7-7-7-7-7-7--6-6-6-6-6-6-6-6-6-6-6-6--7-7-7-7-7-7-7-7--]
  [----7-7-7-7-7-7-7-7-7-7--7-7-7-7-7-7-7-7-7--7-7-7-7-7-7-7-7-7-7-7-7--7-7-7-7-7-7-7-7--]
  [-------------------------5-5-5-5-5-5-5-5-5---------------------------5-5-5-5-5-5-5-5--]
  [----7-7-7-7-7-7-7-7-7-7---------------------7-7-7-7-7-7-7-7-7-7-7-7-------------------]
_______________________________________________________________________________________________
[ Tab from: http://www.guitartabs.cc/tabs/t/taking_back_sunday/a_decade_under_the_influence_tab.html ]
Chorus (guitar 1)
  [------------------------------------------------------------]
  [------------------------------------------------------------]    guitar 2 plays same thing
  [------------------------------------------------------------]
  [----7777777777777777777777777777----00000000000000000000----]
  [----7777777777777777777777777777----00000000000000000000----]
  [----7777777777777777777777777777----00000000000000000000----]
_______________________________________________________________________________________________

Verse (guitar 1)
  [---------------------------------000-----000-----000----]
  [---------------------------------000-----000-----000----]
  [--6-6-6-6-6-6-6-6-6-6-6-6-6--777-666-777-666-777-666----]
  [--7-7-7-7-7-7-7-7-7-7-7-7-7--777-777-777-777-777-777----]
  [--x-x-x-x-x-x-x-x-x-x-x-x-x--555-----555-----555--------]
  [--7-7-7-7-7-7-7-7-7-7-7-7-7-----------------------------]

Verse (guitar 2)
  [-----------------------------------------------------------------------------------]
  [-----------------------------------------------------------------------------------]
  [---6-6-6-6-6-6-6-6--7-7-7-7-7-7-7--6-6-6-6-6-6-6-6-6-6--7-7-7-7-7-7-7-7-7----------]
  [---7-7-7-7-7-7-7-7--7-7-7-7-7-7-7--7-7-7-7-7-7-7-7-7-7--7-7-7-7-7-7-7-7-7----------]
  [--------------------5-5-5-5-5-5-5-----------------------5-5-5-5-5-5-5-5-5----------]
  [---7-7-7-7-7-7-7-7-----------------7-7-7-7-7-7-7-7-7-7-----------------------------]
________________________________________________________________________________________________

Chorus  (guitar 1)
  [-----------------------------------------------------------]
  [-----------------------------------------------------------]      
  [-----------------------------------------------------------]        guitar 2 plays same thing.
  [--77777777777777777777777--0000000000000000000000----------]
  [--77777777777777777777777--0000000000000000000000----------]
  [--77777777777777777777777--00000000000000000000000---------]  

Chorus cont. (guitar 1)
  [--------------------------------------------------------------------------]
  [--------------------------------------------------------------------------]
  [--------------------------------------------------------------------------]   guitar 2 plays
  [--4444444444444444444-2222222222222222--77777777777777777777777777777-----]   same thing
  [--4444444444444444444-2222222222222222--55555555555555555555555555555-----]
  [--4444444444444444444-2222222222222222--00000000000000000000000000000-----]  
                                           *****************************
Interlude                                           (palm mute)
  [---------------------------------------------------------------------------]
  [---------------------------------------------------------------------------]
  [---------------------------------------------------------------------------]     guitar 2 plays
  [----7777777777--7-7-7-7--777777777--7-7-7-7--77777777777777777777777777----]x 2  same thing
  [----5555555555--5-5-5-5--555555555--5-5-5-5--55555555555555555555555555----]     3rd time don’t 
  [----5555555555--5-5-5-5--555555555--5-5-5-5--00000000000000000000000000----]     play last part
                                              Third Time Don't Play This Part
Breakdown (guitar 1)                        
  [--0--0-----0--0-----0~----0~---]         [---------------------]             guitar 2 plays this part of it
  [--0~---0---0~---0---3~----3~---]         [---------------------]             E-0----]
  [--2~-------1~-------2~----2~---]         [---------------------]             B---0--]
  [--2~-------2~-------0~----0~---]  x 4    [---7777777777777777--]        
  [--0~-------2~------------------]         [---5555555555555555--]
Comments