Takida - Riddles Chords & Tabs

 

Riddles Chords & Tabs

Takida Chords & Tabs

Version: 1 Type: Tab 0 ratings
1 star 2 stars 3 stars 4 stars 5 stars
comments

Riddles Tab

   
Takida - Riddles

Tabbed by ceph (ceph_666 @ hotmail.com)

Tune guitar in Drop D (eBGDAD)

Chords used:

D  000xxx / x577xx
E  222xxx
F# 444xxx
G  333xxx
A  555xxx
C  x355xx

------------------------------------------

Intro

e--2-3---2--3------2-3---2--3----|
B------3------3--------3------3--|
G--------------------------------|
D--------------------------------|
A--------------------------------|
D--------------------------------|


e--2-3---2--3------2-3---2--3------2-3---2--3------5-3-2-3--2----| * x2
B------3------3--------3------3--------3------3---------------3--|
G----------------------------------------------------------------|
D----------------------------------------------------------------|
A----------------------------------------------------------------|
D----------------------------------------------------------------| *


------------------------------------------

                E
I see you in my arms

               G  A               G
I will let you go everytime I see you

                E
I think I don't need you

                 C          D(x577xx)
I feel the pain again every time I see you

E   G        A
Oh, why this again?

  G          F#   E
I don't live like that

E   G                  A
Oh, something's within me

G         F#       E     C  G
How can I help you see?

             A               E     C  G
When I wrote riddles in your head

             D(000xxx)       G
When I wrote riddles in your head...

------------------------------------------

Intro again

------------------------------------------

               E              G    A
Why can't this be, you and me alone

                      G
Waiting for the right ones

                   E
I think we're growing old

             D(000xxx)          G        F#
What time is left, soon we will be gone
[ Tab from: http://www.guitartabs.cc/tabs/t/takida/riddles_tab.html ]
E   G        A
Oh, why this again?

  G          F#   E
I don't live like that

E   G                  A
Oh, something's within me

G         F#       E     C  G
How can I help you see?

             A               E     C  G
When I wrote riddles in your head

             A               E     C  G
When I wrote riddles in your head

             D(000xxx)       G
When I wrote riddles in your head...

G                   E    A                G
You say you are the one, your own fiction way

                      E       A      G
Well, you owe me some time so let me go

       A
Let me go

       G
Let me go

                 A
Won't you let me go

       G
Let me go

------------------------------------------

Solo


e-------------------------------------------------------------------------------
B-------------------------------------------------------------------------------
G-------------------------------------------------------------------------------
D--5----5/7-------7/9-10-9-7-5-----------5/7-7-7-5-4-5------7/9-9-10-9-7\5h7p5--
A-----5---------5-----------------------------------------5---------------------
D-------------------------------------------------------------------------------

e-------------------------------------------------------------------------------
B-------------------------------------------------------------------------------
G--------------------------------7-5-4h5----------------------------------------
D--5----5/7-7-7---7/9-10-9-7-5-----------5-5/7-7-7-5-4-5----7/9-9-10-9-7\5h7p5--
A-----5---------5-----------------------------------------5---------------------
D-------------------------------------------------------------------------------


------------------------------------------

Intro till end

------------------------------------------

*** Note: There might be a few mistakes, please mail me corrections if you find any. I'm 
a novice player, ya know.
Comments