Takida - Killed By Train Chords & Tabs

 

Killed By Train Chords & Tabs

Takida Chords & Tabs

Version: 1 Type: Tab

Killed By Train Tab

Takida
Killed by train
Tabbers: Isak_100@hotmail.com   Thorn_89@hotmail.com

[ Tab from: http://www.guitartabs.cc/tabs/t/takida/killed_by_train_tab.html ]
E----------------------------------------------------------|
B----------------------------------------------------------|
G------------------------------------------------------5---|
D---5--7/8--5-------5--7/8--------5--7/8----------7h8------|
A---------------------------6--------------6---------------|
E----------------------------------------------------------|

E----------------------------------------------------------|
B----------------------------------------------------------|
G---3--5----5h7b(9)---5------------------------------------|
D-------------------------7--------------------------------|
A----------------------------------------------------------|
E----------------------------------------------------------|

By Isak and Viktor!
Thats it, questions, comments etc. email us.