Tacabro - Tacata Chords & Tabs

 

Tacata Chords & Tabs

Tacabro Chords & Tabs

Version: 2 Type: Chords 0 ratings
1 star 2 stars 3 stars 4 stars 5 stars
comments

Tacata Chords

   
Choose a rythmn and mute it a bit. Also play the saxophon parts muted.
Enjoy and have fun!


(Edit: Alternative(easier) version for people, who don´t like bar chords and own a capo.
Capo 4. and you can play Em, C, G, D

Example(without capo):
 Abm                  E
Dale mamasita con tu tacatà
 B             F#
Dale mamasita tacatà


Example(with capo):
 Em                  C
Dale mamasita con tu tacatà
 G             D
Dale mamasita tacatà:
) 


------------------------------------------------------------------------


   Abm                  E
Tu sabe que cosa es el Tacatà?
    B        F#
Te gusta el Tacatà?
  Abm                                   E
A mi me gusta cuando las mamitas hacen Tacatà
B       F#
 tacatà bṛ!


 Abm                  E
Dale mamasita con tu tacatà
 B             F#
Dale mamasita tacatà
 Abm                  E
Dale mamasita con tu tacatà
 B             F#
Dale mamasita tacatà
 Abm                  E
Dale mamasita con tu tacatà
 B             F#
Dale mamasita tacatà
 Abm                  E
Dale mamasita con tu tacatà
 B             F#
Dale mamasita tacatà


 Abm               E
Mira como dice mi Tacatà.
 B                     F#
Que empieze la fiesta Tacatà.
    Abm               E
La gente bailando el Tacatà,
     B              F#
to' mundo gritando Tacatà.
 Abm                 E
Subele el volume de Tacatà,
  B              F#
mueve tu culito Tacatà,
    Abm              E
tambien el bechito. Tacatà.
   B               F#
Romano & Sapienza Tacatà.

Abm    E   B(mute and stop playing, this is just spoken)
   Oh yeah, pa' la gente que le gusta el Tacatà, ahora digo Atacabṛ, ataca yo y el mi tambien.

Saxophon starts play chords: Abm, E, B, F# (4x) OR
|-----------------------------------|
|-8/9--------------8/9--------------|
|----8-8-9--9-9-9-----8-8-9--11-9-8-|  3x
|-----------------------------------|
|-----------------------------------|
|-----------------------------------|
                                      
|-----------------------------------|
|-8/9--------------8/9----9--12-11-9|
|----8-8-9--9-9-9-----8-8-----------|  1x
|-----------------------------------|
|-----------------------------------|
|-----------------------------------|

    Abm                 E
La gente bailando y tu bla bla bla.
    B                      F#
Que es y ataca yo, que es battallà.
    Abm                       E
Le tette muchacho, yo vuelta Tacatà.
    B                   F#
Que todos le gusta, ai mama.
    Abm                 E
te veo attacaa y bien sofocaa
      B                    F#
ecriviendo cositas de este esperao
    Abm                      E
invente una cosa nueva a la house
B         E
 Tacatà bro.


 Abm                  E
Dale mamasita con tu tacatà
 B             F#
Dale mamasita tacatà
 Abm                  E
Dale mamasita con tu tacatà
 B             F#
Dale mamasita tacatà
 Abm                  E
Dale mamasita con tu tacatà
 B             F#
Dale mamasita tacatà
 Abm                  E
Dale mamasita con tu tacatà
 B             F#
Dale mamasita tacatà

[ Tab from: http://www.guitartabs.cc/tabs/t/tacabro/tacata_crd_ver_2.html ]
 Abm               E
Mira como dice mi Tacatà.
 B                     F#
Que empieze la fiesta Tacatà.
    Abm               E
La gente bailando el Tacatà,
     B              F#
to' mundo gritando Tacatà.
 Abm                 E
Subele el volume de Tacatà,
  B              F#
mueve tu culito Tacatà,
    Abm              E
tambien el bechito. Tacatà.
       B                F#
Que empieze la fiesta, tacatà


Saxophon starts play chords: Abm, E, B, F# (4x) OR
|-----------------------------------|
|-8/9--------------8/9--------------|
|----8-8-9--9-9-9-----8-8-9--11-9-8-|  3x
|-----------------------------------|
|-----------------------------------|
|-----------------------------------|
                                      
|-----------------------------------|
|-8/9--------------8/9----9--12-11-9|
|----8-8-9--9-9-9-----8-8-----------|  1x
|-----------------------------------|
|-----------------------------------|
|-----------------------------------|




   Abm                  E
ella criticando mi música buena.
     B                         F#
que hago con algun, para toda la arena.
   Abm                       E
dale tomate un vaso de agua con carnela.
   B                                 F#
y veras muchachito que te pasan las penas,
   Abm                         E
juege conmigo que yo estoy en candela
   B                          F#
tu sabe yo soy el rey de las nenas.
 Abm                          E
Uela muchaco, Tu sabe yo soy candela,
   B                          F#
tu sabe yo soy el rey de las nenas.
  Abm                 E
y que pone las cosas buena.
   B                                        F# 
y ya todo el mundo sabe que lo canten de La Habana.
 Abm     E
ta, ta, tacatà.


 Abm                  E
Dale mamasita con tu tacatà
 B             F#
Dale mamasita tacatà
 Abm                  E
Dale mamasita con tu tacatà
 B             F#
Dale mamasita tacatà
 Abm                  E
Dale mamasita con tu tacatà
 B             F#
Dale mamasita tacatà
 Abm                  E
Dale mamasita con tu tacatà
 B             F#
Dale mamasita tacatà


 Abm               E
Mira como dice mi Tacatà.
 B                     F#
Que empieze la fiesta Tacatà.
    Abm               E
La gente bailando el Tacatà,
     B              F#
to' mundo gritando Tacatà.
 Abm                 E
Subele el volume de Tacatà,
  B              F#
mueve tu culito Tacatà,
    Abm              E
tambien el bechito. Tacatà.
       B                F#
Que empieze la fiesta, tacatà.

 Abm(Mute and stop)
hacete tacatà, que te gusta a ti mami.

 Abm     E       OR 
ta, ta, tacatà.
|------------|
|9--------9--|
|---8---11-8 |  1x
|------------|
|------------|
|------------|

(just spoken)
ahhhhhh.
   B     F#
tacatà bṛ̣.


Saxophon starts play chords: Abm, E, B, F# (4x) OR
|------------------------------------|
|-8/9--------------8/9---------------|
|----8-8-9--9-9-9-----8-8-9--11-9-8--|  3x
|------------------------------------|
|------------------------------------|
|------------------------------------|
                                      
|------------------------------------|
|-8/9--------------8/9----9--12-11-9\|
|----8-8-9--9-9-9-----8-8------------|  1x
|------------------------------------|
|------------------------------------|
|------------------------------------|
Comments