Systematic - Right Before You Chords & Tabs

 

Right Before You Chords & Tabs

Systematic Chords & Tabs

Version: 1 Type: Tab

Right Before You Tab

verse         
e(--------------------2---------)(------------------3-----------------)
b(----3-4-3--2--2---3---3--3--3-)(------------------------------------)
g(------------------------------)(------------2-------2-------2-------)
d(------------------------------)(------2---2-----3-----2---2---2---2-)
a(------------------------------)(--0-2---3-----3---------2-------2---)
D(--0-------0--0---0------0--0--)(------------------------------------)

e(----------------)
b(---------8-8/10-)
g(--7-9-10--------)
d(----------------)
a(----------------)
D(----------------)
[ Tab from: http://www.guitartabs.cc/tabs/s/systematic/right_before_you_tab.html ]
chorus                              lead    (x2)
e(-------------------------------)(-----------------------)(---------------)
b(-------------------------------)(--7-5-7-10-9-7-9-7-4-3-)(--775-55555-53-)
g(-------------------------------)(-----------------------)(---------------)
d(--7-777-777-777-4-444-444-4444-)(-----------------------)(---------------)
a(--7-777-777-777-4-444-444-4444-)(-----------------------)(---------------)
D(--7-777-777-777-4-444-444-4444-)(-----------------------)(---------------)

breakdown
e(------------)(---------------------)
b(------------)(---------------------)
g(--764325423-)(--0-2-4-5-4-0-2-0----)
d(--764325423-)(-------------------3-)
a(--542103201-)(--55-55-33-330-xxx2--)
D(------------)(--55-55-33-330-xxx2--)