Systematic - Jane Doe Chords & Tabs

 

Jane Doe Chords & Tabs

Systematic Chords & Tabs

Version: 1 Type: Bass Tab

Jane Doe Bass Tab

Im not sure if this is how it goes but i can't find this tab for bass (sad because its
a nice song) so i attempted tabbing it out, its probably wrong but its the best i can
do. so i will attempt to tab, i know Bechtel uses a five string but all i have is a four
so i will tab it out for four strings. Please if you can play this correctly, tell me if
i am doing anything wrong!



These first parts dont sound right untill you can play them as fast as the song is
supposed to be.(HINT: If you want to play that last five in the intro you can but
try and make it fast, i think it dosnt matter.
0:10
Intro.
D[------------------------]
A[------------------3h555-]
E[---------------3h5------]
B[-00003330-0-3-0---------]


0:45
Bridge1
D[-----------------------][-LAST TIME THROUGH-]
A[-----------------------][------(1:03)-------]
E[-----------------------][-------------------]
B[-00000002h3--3333333p0-][-XXXXXX------------]
 "Watch what you wish for, they might come for more"

Does this look familiar at all *cough*INTRO*cough* If You Masterd it then you can
rock this whole damn song.
1:04
chourse
D[------------------------]
A[------------------3h555-]
E[---------------3h5------]
B[-00003330-0-3-0---------]
"Oh you know the wicked will come, picking, scratching, tearing you away"
[ Tab from: http://www.guitartabs.cc/tabs/s/systematic/jane_doe_btab.html ]
The rest of the song is the same ol' same ol' beyond this point.
1:23
D[------------------------]
A[------------------3h555-]
E[---------------3h5------]
B[-00003330-0-3-0---------]
"Hey Jane, you fucked your way to number one, Jane you'll pay the price for what
you've done"

bridge1
1:48
D[-----------------------][-LAST TIME THROUGH-]
A[-----------------------][------(2:05)-------]
E[-----------------------][-------------------]
B[-00000002h3--3333333p0-][-XXXXXX------------]
"Watch what you wish for, they might come for more"


chourse
2:06
D[------------------------]
A[------------------3h555-]
E[---------------3h5------]
B[-00003330-0-3-0---------]
"Oh you know the wicked will come, picking, scratching, tearing you away"

This is where the song FINALLY changes a bit
Bridge2
2:23
D[-------------]
A[---------3h5-]
E[------3h5----]
B[-0-3-0-------]
"Jane, now the wicked will come"

2:41
D[------------------------]
A[------------------3h555-]
E[---------------3h5------]
B[-00003330-0-3-0---------]
"Hey Jane, when will you find what you want?"

Chourse
3:09
D[------------------------]
A[------------------3h555-]
E[---------------3h5------]
B[-00003330-0-3-0---------]
"Oh you know the wicked will come, picking, scratching, tearing you away"

THis tab is most likly WRONG!!!, but rate it anyway and give me feedback so i
can fix it up into a real tab. Thank you for takeing the time to view my tab ^^