Systematic - Deep Colors Bleed Chords & Tabs

 

Deep Colors Bleed Chords & Tabs

Systematic Chords & Tabs

Version: 3 Type: Tab 0 ratings
1 star 2 stars 3 stars 4 stars 5 stars
comments

Deep Colors Bleed Tab

Artist- Systematic
Solo- Deep Colors Bleed
Tabber- Iconoclast

|-----------------------------------------------------|
|-----------------------------------------------------|
|---------------------------------------------------5-|
|-3h5p3p0h3p0-----------------0-3-0-3-5-3-5-7-5-7-5---|
|-------------3h5p3p0h3p0-1~--------------------------|
|-----------------------------------------------------|

|---1---1---1---1---1-1---1---1---1-3b(5)r-|
|---3---3---3---3-3-3-3---3---3---3--------|
|------------------------------------------|
|-0---0---0---0---------0---0---0----------|
|------------------------------------------|
|------------------------------------------|
[ Tab from: http://www.guitartabs.cc/tabs/s/systematic/deep_colors_bleed_tab_ver_3.html ]
                  | *see note at bottom
|-----------------|------------------------------------|
|----------/5-6---|--10---8h10-----8---8h10-----8------|
|--------3--------|--------------8------------8-----7~-|
|---/3-2----------|-----7------7-----7------7-----7----|
|-1---------------|------------------------------------|
|-----------------|------------------------------------|

|----------------------------|
|-13-------15-------17----15-|
|----14-14----14-14----14----|
|----------------------------|
|----------------------------|
|----------------------------|

*The riff thats marked off may be whats wrote there, or this. You choose which one sounds 
right i cant decide.

|-------------------------------------------|
|-------------------------------------------|
|-------------------------------------------|
|--19p0-17h19p0-15h19p0-17h19p0-15h19p0-----|
|---------------------------------------17~-|
|-------------------------------------------|

Enjoy.
Comments