Systematic - Deep Colors Bleed Chords & Tabs

 

Deep Colors Bleed Chords & Tabs

Systematic Chords & Tabs

Version: 2 Type: Tab 0 ratings
1 star 2 stars 3 stars 4 stars 5 stars
comments

Deep Colors Bleed Tab

Artist- Systematic
Song- Deep Colors Bleed
Tabber- Iconoclast

Intro- 1st guitar (all hammers and pulloffs)
d|----------------------------------------------|
a|----------------------------------------------|
f|----------------------------------------------|
c|----------------------------------------------|
g|----------------------------------------------|
C|-12-0-12-0-12-0-12-0-12-0-12-0-12-0-12-0------|

d|----------------------------------------------|
a|----------------------------------------------|
f|----------------------------------------------|
c|----------------------------------------------|
g|----------------------------------------------|
C|-11-0-11-0-11-0-11-0-14-0-14-0-14-0-14-0------|

Intro 2nd Guitar (strumming not shown)
d|------------|
a|------------|
f|-19-18-21---|
c|--x--x--x---|
g|-17-16-19---|
C|------------|

Verse- Same as the Intro- 1st guitar, but all palm muted.
[ Tab from: http://www.guitartabs.cc/tabs/s/systematic/deep_colors_bleed_tab_ver_2.html ]
Prechorus
d|----------------------------------------------|
a|----------------------------------------------|
f|----------------------------------------------|
c|-0-0-0-0-0-0-0-0------------------------------|
g|-0-0-0-0-0-0-0-0------------------------------|
C|-0-0-0-0-0-0-0-0------------------------------|


Chorus
d|----------------------------------------------------|
a|----------------------------------------------------|
f|---------------------9------------------------------|
c|-7h8-7h8--10-7h8-7h8-8--------------------------3---|
g|-7h8-7h8--10-7h8-7h8-8--------------------------3---|
C|-7h8-7h8--10-7h8-7h8-8-0-0-0-12-0-0-0-12-0-12-0-3---|
                         pm----------------------

d|----------------------------------------------|
a|----------------------------------------------|
f|----------------------------------------------|
c|--------------------------10------------------|
g|--------------------------10------------------|
C|-0-0-0-12-0-0-0-12-0-12-0-10------------------|
   pm----------------------

Can't figure out the solo, sry guys.

Enjoy.
Comments