Systematic - Deep Colors Bleed Chords & Tabs

 

Deep Colors Bleed Chords & Tabs

Systematic Chords & Tabs

Version: 1 Type: Tab 0 ratings
1 star 2 stars 3 stars 4 stars 5 stars
comments

Deep Colors Bleed Tab

   
Song: Deep Colors Bleed	(Simplified)
Artist: Systematic
Album: Ozzfest 2001
Tabbed by: adam_labadie@hotmail.com

This song kicks ass, its heavy and it flows well, I couldn’t find a tab for it anywhere so I tried to figure it out as best as I could, here it is.

Tuning: Dropped C :   C G C F A D

Intro:
C:-------------------------------------------------------------
G:-------------------------------------------------------------
C:---12---0---16x---11---0---2x---14---0---12x------
       Pull-off	        Pull off	       Pull off

Then plays this over the intro riff:	use same timing!
A:---15---14---17----------
F:-----------------------------	
C:---12---11---14----------
[ Tab from: http://www.guitartabs.cc/tabs/s/systematic/deep_colors_bleed_tab.html ]
**When the signing kicks in, play the intro riff, but palm mute it!!

Heavy part:
G:---0-0----0-0----0-0----0-0----8-8----8-8----8-8----8-8-- *not sure if 8th fret is right?
C:---0-0----0-0----0-0----0-0----8-8----8-8----8-8----8-8—
		Play this 2x then go into Chorus

Chorus:

G:--7-8-8-8-8-8-8-7-8-8-10-----0-0-0-0-0-0-0-0-8-0-0-0-0-0-0-0-0-10---
C:--7-8-8-8-8-8-8-7-8-8-10-----0-0-0-0-0-0-0-0-8-0-0-0-0-0-0-0-0-10---

Then the solo kicks in:
Sorry, I couldn’t figure it out, but the guitarist uses some sweet pull off techniques.

**Listen to the song for the proper order and timing, 

If you find anything wrong with this tab, email me if you really, really want too, I don’t really care all that much

**some of the parts are incorrect, I know that much, but atleast this will get you started.

Later bitches.
Comments