System Of A Down - X Chords & Tabs

 

X Chords & Tabs

System Of A Down Chords & Tabs

Version: 2 Type: Tab 0 ratings
1 star 2 stars 3 stars 4 stars 5 stars
comments

X Tab

   
Song: X
Artist: System of a Down
Album: Toxicity
Tuning: Drop D, down 1 step, CGCFAD
---------------------------------------
. – palm mute
h - hammer on
p - pull off
b - bend string up 1/2 step
r - release bend
--------------------------------------- 

Intro,0:00:
d|-----------------------------------------|
A|-----------------------------------------|
F|-----------------------------------------|x5
C|-10p0-12p0-13p0-12p0-10p0-12p0-13p0-12p0-|
G|-----------------------------------------|
C|-----------------------------------------| 
pm .. . .. . .. . .. . .. . .. . .. . .. . 

d|-----------------------------------------------------------------------------|
A|-----------------------------------------------------------------------------|
F|-----------------------------------------------------------------------------|
C|-10p0-12p0-13-12-10-12-13-12-10-12-13-12-10-12-13-12-10-12-13-12-10-12-13-12-|
G|-----------------------------------------------------------------------------|
C|-----------------------------------------------------------------------------| 
pm .. . .. . |--------------------------slight p.m.----------------------------| 

dist.,0:10:
d|-----------------------------------------------------------------------|
A|-----------------------------------------------------------------------|
F|--------------------------9b---9—-9r-----------------------------------|x2
C|-------------------------10b--10-10r-----------------------------------|
G|-0-------0-----0---0-0--------------0-0-----0-----0---0-0---10/13-13---|
C|-0-------0-----0---0-0--------------0-0-----0-----0---0-0---10/13-13---|
                                                     
 Rhy. Fig. 1,0:21,0:42,1:09: 
d|-----------------------------------------------------------------------|
A|-----------------------------------------------------------------------|
F|--------------------------9b---9—-9r-----------------------------------|
C|-------------------------10b--10-10r-----------------------------------|
G|-0-------0-----0---0-0--------------0-0-----0-----0---0-0---10/13-13---|
C|-0-------0-----0---0-0--------------0-0-----0-----0---0-0---10/13-13---|
                                                            
 
d|---------------------------------------------------------------------|
A|---------------------------------------------------------------------|
F|--------------------------9b---9—-9r---------------------------------|
C|-------------------------10b--10-10r---------------------------------|
G|-0-------0-----0---0-0--------------0-0-----0-----0---0-0---10-13-13-|
C|-0-------0-----0---0-0--------------0-0-----0-----0---0-0---10-13-13-|
                                                            pm..

Rhy. Fig. 2,0:32,0:53,1:40:
d|-------------------------|
A|-------------------------|
F|-------------------------|x8
C|-------------------------|
G|-10-12-13-12-10-12-13-12-|
C|-10-12-13-12-10-12-13-12-| 
pm .. .. .. .. .. .. .. .. 
[ Tab from: http://www.guitartabs.cc/tabs/s/system_of_a_down/x_tab_ver_2.html ]
Rhy. Fig. 1:   
d|-----------------------------------------------------------------------|
A|-----------------------------------------------------------------------|
F|--------------------------9b---9—-9r-----------------------------------|
C|-------------------------10b--10-10r-----------------------------------|
G|-0-------0-----0---0-0--------------0-0-----0-----0---0-0---10/13-13---|
C|-0-------0-----0---0-0--------------0-0-----0-----0---0-0---10/13-13---|
                                                            
 
d|---------------------------------------------------------------------|
A|---------------------------------------------------------------------|
F|--------------------------9b---9—-9r---------------------------------|
C|-------------------------10b--10-10r---------------------------------|
G|-0-------0-----0---0-0--------------0-0-----0-----0---0-0---10-13-13-|
C|-0-------0-----0---0-0--------------0-0-----0-----0---0-0---10-13-13-|
                                                            pm..

Rhy. Fig. 2:
d|-------------------------|
A|-------------------------|
F|-------------------------|x12
C|-------------------------|
G|-10-12-13-12-10-12-13-12-|
C|-10-12-13-12-10-12-13-12-| 
pm .. .. .. .. .. .. .. .. 

Rhy. Fig. 1: 
d|-----------------------------------------------------------------------|
A|-----------------------------------------------------------------------|
F|--------------------------9b---9—-9r-----------------------------------|
C|-------------------------10b--10-10r-----------------------------------|
G|-0-------0-----0---0-0--------------0-0-----0-----0---0-0---10/13-13---|
C|-0-------0-----0---0-0--------------0-0-----0-----0---0-0---10/13-13---|
                                                            
                             
d|---------------------------------------------------------------------|
A|---------------------------------------------------------------------|
F|--------------------------9b---9—-9r---------------------------------|
C|-------------------------10b--10-10r---------------------------------|
G|-0-------0-----0---0-0--------------0-0-----0-----0---0-0---10-13-13-|
C|-0-------0-----0---0-0--------------0-0-----0-----0---0-0---10-13-13-|
                                                            pm..
                                                          
 Bridge,1:19:                                                          
d|---------------------------------10br---------10br---------------10br---|
A|------------------------------------------------------------------------|
F|------------------------------------------------------------------------|x3
C|------------------------------------------------------------------------|
G|-10-12-13-12-0-----0---0-0---0--------0------------0---0-0---0----------|
C|-10-12-13-12-0-----0---0-0---0--------0------------0---0-0---0----------|
pm .. .. .. ..
                                                              
d|---------------------------------10br---------10br---------------10-----|
A|------------------------------------------------------------------------|
F|------------------------------------------------------------------------|
C|------------------------------------------------------------------------|
G|-10-12-13-12-0-----0---0-0---0--------0------------0---0-0---0----------|
C|-10-12-13-12-0-----0---0-0---0--------0------------0---0-0---0----------|
pm .. .. .. ..

Rhy. Fig. 2:
d|-------------------------|
A|-------------------------|
F|-------------------------|x12
C|-------------------------|
G|-10-12-13-12-10-12-13-12-|
C|-10-12-13-12-10-12-13-12-| 
pm .. .. .. .. .. .. .. .. 

That’s the whole song.
Comments