System Of A Down - X Chords & Tabs

 

X Chords & Tabs

System Of A Down Chords & Tabs

Version: 1 Type: Bass Tab 1 rating
1 star 2 stars 3 stars 4 stars 5 stars
comments

X Bass Tab

   
Artist: System of a Down
Song: X
Album: Toxicity
Tuning: C G C F


INTRO
|----------------------------------------------------------------|
|----------------------------------------------------------------|
|----------------------------------------------------------------|
|----------------------------------------------------------------|

|----------------------------------------------------------------|
|5---------------5---------------5---------------5---------------|
|----------------------------------------------------------------|
|----------------------------------------------------------------|

|----------------------------------------------------------------|
|------------------------10b-------------------------------------|
|--------------------------------------------------------3/6-6-6-|
|0-------0---0-0---0-0-----------0-0-----0---0-0---0-0-----------| 3X

|----------------------------------------------------------------|
|------------------------10b-------------------------------------|
|--------------------------------------------------------3-5-6---|
|0-------0---0-0---0-0-----------0-0-----0---0-0---0-0-----------|

VERSE I
{===7X===}
|--------|--------|
|--------|--------|
|3-5-6-5-|3-3-3---|
|--------|--------|

{===7X===}
|--------|--------|
|--------|--------|
|3-5-6-5-|3-5-6-3-|
|--------|--------|
[ Tab from: http://www.guitartabs.cc/tabs/s/system_of_a_down/x_btab.html ]
CHORUS I
|----------------------------------------------------------------|
|------------------------10b-------------------------------------|
|--------------------------------------------------------3/6-6-6-|
|0-------0---0-0---0-0-----------0-0-----0---0-0---0-0-----------| 3X

|----------------------------------------------------------------|
|------------------------10b-------------------------------------|
|--------------------------------------------------------3-5-6---|
|0-------0---0-0---0-0-----------0-0-----0---0-0---0-0-----------|

VERSE II
{===7X===}
|--------|--------|
|--------|--------|
|3-5-6-5-|3-3-3---|
|--------|--------|

{===15X==}
|--------|--------|
|--------|--------|
|3-5-6-5-|3-5-6-3-|
|--------|--------|

CHORUS II
|----------------------------------------------------------------|
|------------------------10b-------------------------------------|
|--------------------------------------------------------3/6-6-6-|
|0-------0---0-0---0-0-----------0-0-----0---0-0---0-0-----------| 3X

|----------------------------------------------------------------|
|------------------------10b-------------------------------------|
|--------------------------------------------------------3/6-6---|
|0-------0---0-0---0-0-----------0-0-----0---0-0---0-0-----------|

BRIDGE
|----------------------------7b-----------7b-------------------7b|
|----------------------------------------------------------------|
|----------------------------------------------------------------|
|--------0-----0---0-0---0-------0---------------0---0-0---0-----| 4X

VERSE III / OUTRO
{===7X===}
|--------|--------|
|--------|--------|
|3-5-6-5-|3-3-3---|
|--------|--------|

{===15X==}
|--------|--------|
|--------|------5-|
|3-5-6-5-|3-5-6---|
|--------|--------|
Comments