System Of A Down - War Chords & Tabs

 

War Chords & Tabs

System Of A Down Chords & Tabs

Version: 5 Type: Tab 0 ratings
1 star 2 stars 3 stars 4 stars 5 stars
comments

War Tab

"War?" -SYSTeM oF a DoWN

Tab by Vaughn Thompson. Taken from several sources and 'fixed'.
This tab is correct!!

drop C tuning

INTRO
D|-----------------|-----------------|-----------------|-----------------|
A|-------------x---|-------------x---|-------------x---|---------8---8---|
F|-8-7-8-7-x-x---x-|-8-7-8-7-x-x---x-|-8-7-8-7-x-x---x-|-8-7-8-7---7---7-|
C|-----------------|-----------------|-----------------|-----------------|
G|-----------------|-----------------|-----------------|-----------------|
C|-----------------|-----------------|-----------------|-----------------|
 
D|-----------------|-----------------|-----------------|--------------x----|
A|-------------x---|-------------x---|-------------x---|---x-x--- x-x-xx---|
F|-8-7-8-7-x-x---x-|-8-7-8-7-x-x---x-|-8-7-8-7-x-x---x-|-x-----x-------xx--|
C|-----------------|-----------------|-----------------|----------------xx-|
G|-----------------|-----------------|-----------------|-----------------x-|
C|-----------------|-----------------|-----------------|-------------------|

D||---------------------------------------------------------------||
A||------------------------------------6-6------------7-7---------||
F||------------------------------------5-5------------6-6---------||
C||-0--0-10--0-0-5-0--0-11--0-0-6-0--0-----0-0-5-0--0-----0-0-6-0-||
G||-0--0-8 --0-0-5-0--0-9 --0-0-6-0--0-----0-0-5-0--0-----0-0-6-0-||
C||-0--0-----0-0-5-0--0-----0-0-6-0--0-----0-0-5-0--0-----0-0-6-0-||

D||-----------------|-----------------|-----------------|-----------------||
A||-----------------|-----------------|-----------------|-----------------||
F||-----------------|-----------------|-----------------|-----------------||
C||-1-0-1-0---------|-1-0-1-0---------|-1-0-1-0---------|-1-0-1-0-5-0-1-0-||
G||-1-0-1-0---------|-1-0-1-0---------|-1-0-1-0---------|-1-0-1-0-5-0-1-0-||
C||-1-0-1-0---------|-1-0-1-0---------|-1-0-1-0---------|-1-0-1-0-5-0-1-0-||
PM  . . . .           . . . .           . . . .           . . . . . . . .

D|-------------x---|-------------x---|-------------x---|-----------------|
A|-------------x---|-------------x---|-------------x---|-----------------|
F|---------x-x---x-|---------x-x---x-|---------x-x---x-|-----------------|
C|-1-0-1-0-x-x---x-|-1-0-1-0-x-x---x-|-1-0-1-0-x-x---x-|-1-0-1-0-5-0-1-0-|
G|-1-0-1-0---------|-1-0-1-0---------|-1-0-1-0---------|-1-0-1-0-5-0-1-0-|
C|-1-0-1-0---------|-1-0-1-0---------|-1-0-1-0---------|-1-0-1-0-5-0-1-0-|

D|-------------x---|-------------x---|-------------x---|-------------x----|
A|-------------x---|-------------x---|-------------x---|---x-x---x-x-xx---|
F|---------x-x---x-|---------x-x---x-|---------x-x---x-|-x-----x------xx--|
C|-1-0-1-0-x-x---x-|-1-0-1-0-x-x---x-|-1-0-1-0-x-x---x-|---------------xx-|
G|-1-0-1-0---------|-1-0-1-0---------|-1-0-1-0---------|----------------x-|
C|-1-0-1-0---------|-1-0-1-0---------|-1-0-1-0---------|------------------|

D||---------------------------------------------------------------||
A||------------------------------------6-6------------7-7---------||
F||------------------------------------5-5------------6-6---------||
C||-0--0-10--0-0-5-0--0-11--0-0-6-0--0-----0-0-5-0--0-----0-0-6-0-||
G||-0--0-8 --0-0-5-0--0-9 --0-0-6-0--0-----0-0-5-0--0-----0-0-6-0-||
C||-0--0-----0-0-5-0--0-----0-0-6-0--0-----0-0-5-0--0-----0-0-6-0-||
[ Tab from: http://www.guitartabs.cc/tabs/s/system_of_a_down/war_tab_ver_5.html ]
D|-----------------|-----------------|-----------------|-----------------|
A|-----------------|-----------------|-----------------|-----------------|
F|-----------------|-----------------|-----------------|-----------------|
C|-1-0-1-0---------|-1-0-1-----------|-1-0-1-0---------|-1-0-1-0-5-0-1-0-|
G|-1-0-1-0---------|-1-0-1-----------|-1-0-1-0---------|-1-0-1-0-5-0-1-0-|
C|-1-0-1-0---------|-1-0-1-/-5-------|-1-0-1-0---------|-1-0-1-0-5-0-1-0-|
PM . . . .           . . .             . . . .           . . . . . . . .

D|-------------x---|-------------x---|-------------x---|-------------x----|
A|-------------x---|-------------x---|-------------x---|---x-x---x-x-xx---|
F|---------x-x---x-|-----------x---x-|---------x-x---x-|-x-----x------xx--|
C|-1-0-1-0-x-x---x-|-1-0-1-----x---x-|-1-0-1-0-x-x---x-|---------------xx-|
G|-1-0-1-0---------|-1-0-1-----------|-1-0-1-0---------|----------------x-|
C|-1-0-1-0---------|-1-0-1-/-5-------|-1-0-1-0---------|------------------|

D||---------------------------------------------------------------||
A||------------------------------------6-6------------7-7---------||
F||------------------------------------5-5------------6-6---------||
C||-0--0-10--0-0-5-0--0-11--0-0-6-0--0-----0-0-5-0--0-----0-0-6-0-||
G||-0--0-8 --0-0-5-0--0-9 --0-0-6-0--0-----0-0-5-0--0-----0-0-6-0-||
C||-0--0-----0-0-5-0--0-----0-0-6-0--0-----0-0-5-0--0-----0-0-6-0-||

D||---------------------------------------------------------------||
A||------------------------------------6-6------------7-7---------||
F||------------------------------------5-5------------6-6---------||
C||-0--0-10--0-0-5-0--0-11--0-0-6-0--0-----0-0-5-0--0-----0-0-6-0-||
G||-0--0-8 --0-0-5-0--0-9 --0-0-6-0--0-----0-0-5-0--0-----0-0-6-0-||
C||-0--0-----0-0-5-0--0-----0-0-6-0--0-----0-0-5-0--0-----0-0-6-0-||
PM  .  . .   . . . .  . .   . . . .  .     . . . .  .     . . . .

D||-------------------||
A||-------------------||
F||---10-8-7---7-8-10-||  8x
C||-0--------0--------||
G||-------------------||
C||-------------------||

“We must call upon our bright darkness…”
D||----------||
A||----------||
F||---10-8-7-||
C||-0--------||
G||----------||
C||----------||

“For you must enter a room to destroy…” 
D||----------||
A||----------||
F||---7-8-10-||
C||-0--------||
G||----------||
C||----------||



“Now international security…”
D||-------------------||
A||-------10----------||
F||---7-8------7-8-10-||
C||-0--------0--------||
G||-------------------||
C||-------------------||
 
"…the call of the righteous man…"
D||-------------------||
A||-------11----------||
F||---7-8------7-8-10-||
C||-0--------0--------||
G||-------------------||
C||-------------------||
 
"needs a reason to kill a man"
D||-------------------||
A||-------10----------||
F||---7-8------7-8-10-||
C||-0--------0--------||
G||-------------------||
C||-------------------||
 
"history teaches us so"
D||-------------------||
A||-------10----------||
F||---7-8------7-8-10-||
C||-0--------0--------||
G||-------------------||
C||-------------------||
 
"the reason he must attain......"
D||----------||
A||----------||
F||---7-8-10-||
C||-0--------||
G||----------||
C||----------||
 
"of war we dont speak anymore..."
D||----------||
A||----------||
F||---10-8-7-||
C||-0--------||
G||----------||
C||----------||

 “…ANYMORE!!!!!”
D||---------------------------------------------------------------||
A||------------------------------------6-6------------7-7---------||
F||------------------------------------5-5------------6-6---------||
C||-0--0-10--0-0-5-0--0-11--0-0-6-0--0-----0-0-5-0--0-----0-0-6-0-||
G||-0--0-8 --0-0-5-0--0-9 --0-0-6-0--0-----0-0-5-0--0-----0-0-6-0-||
C||-0--0-----0-0-5-0--0-----0-0-6-0--0-----0-0-5-0--0-----0-0-6-0-||

D||---------------------------------------------------------------||
A||------------------------------------6-6------------7-7---------||
F||------------------------------------5-5------------6-6---------||
C||-0--0-10--0-0-5-0--0-11--0-0-6-0--0-----0-0-5-0--0-----0-0-6-0-||
G||-0--0-8 --0-0-5-0--0-9 --0-0-6-0--0-----0-0-5-0--0-----0-0-6-0-||
C||-0--0-----0-0-5-0--0-----0-0-6-0--0-----0-0-5-0--0-----0-0-6-0-||
PM  .  . .   . . . .  . .   . . . .  .     . . . .  .     . . . .
Comments