System Of A Down - War Chords & Tabs

 

War Chords & Tabs

System Of A Down Chords & Tabs

Version: 4 Type: Tab 0 ratings
1 star 2 stars 3 stars 4 stars 5 stars
comments

War Tab

   
 "WAR?" -SYSTeM oF a DoWN
      

intro
       3x
---------------|---------------|
------------x--|--------7---7--|
7-6-7-6-x-x---x|7-6-7-6---6---6|
---------------|---------------|
---------------|---------------|
---------------|---------------|
          3x
---------------|---------------|
------------x--|--xx---x-x-xxxx|
7-6-7-6-x-x---x|-x---x---------|
---------------|---------------|
---------------|---------------|
---------------|---------------|

riff a  2x
-----------------------------------------------------------|
----------------------------------66------------77---------|
----------------------------------55------------66---------|
0--0-10--0-0-5-0-0-11--0-0-6-0--0----0-0-5-0--0----0-0-6-0-|
0--0-8 --0-0-5-0-0-9 --0-0-6-0--0----0-0-5-0--0----0-0-6-0-|
0--0-----0-0-5-0-0-----0-0-6-0--0----0-0-5-0--0----0-0-6-0-|

riff b (a) 2x
        1x|      2x|             1x| 
----------|--------|---------------|
----------|--------|---------------|
----------|--------|---------------|
0-1-0-1-0-|1-0-1-0-|1-0-1-0-5-0-1-0|
0-1-0-1-0-|1-0-1-0-|1-0-1-0-5-0-1-0|
0-1-0-1-0-|1-0-1-0-|1-0-1-0-5-0-1-0|
[ Tab from: http://www.guitartabs.cc/tabs/s/system_of_a_down/war_tab_ver_4.html ]
riff b (b) 2x
                1x|              2x|
--------------x---|------------x---|---------------|
--------------x---|------------x---|---------------|
----------x-x---x-|--------x-x---x-|---------------|
0-1-0-1-0-x-x---x-|1-0-1-0-x-x---x-|1-0-1-0-5-0-1-0|
0-1-0-1-0---------|1-0-1-0---------|1-0-1-0-5-0-1-0|
0-1-0-1-0---------|1-0-1-0---------|1-0-1-0-5-0-1-0| 


riff a      2x
riff b (a)  1x 
riff b (b)  1x 
riff a      2x
riff a palm muted 2x
    
                
                palm muted
------------------|
------------------|
--10-8-7---7-8-10-|
0--------0--------|
------------------|
------------------|

do this when he starts singing
---------
---------
--10-8-7-
0--------
---------
---------

after he says "for you must enter a room to destroy it"
---------
---------
--7-8-10-
0--------
---------
---------


when he says "international security" do this

repeat 4x
---------
------10-
--7-8----
0--------
---------
---------

"call of the righteous man"
       4x
---------
------11-
--7-8----
0--------
---------
---------


"needs a reason to kill a man"
       4x
---------
------10-
--7-8----
0--------
---------
---------

"history teaches us so"
               2x
------------------
------10----------
--7-8------7-8-10-
0--------0--------
------------------
------------------

"the reason he must attain......"
---------
---------
--7-8-10-
0--------
---------
---------

"of war we dont speak anymore..."
--------- 
---------
--10-8-7-
0--------
---------
---------

riff a  2x
riff a palm muted 2x



     

Comments