System Of A Down - War Chords & Tabs

 

War Chords & Tabs

System Of A Down Chords & Tabs

Version: 1 Type: Tab 0 ratings
1 star 2 stars 3 stars 4 stars 5 stars
comments

War Tab

Song: War?(System of a Down)

Chorus/Main Riff:
[ Tab from: http://www.guitartabs.cc/tabs/s/system_of_a_down/war_tab.html ]
E------------------------------------------------------------------
B------------------------------------------------------------------
G------------------------------------------------------------------
D--0--0-6-6-0-0-6-0---0-0-6-6-0-0-6-0----------------------------------------------
A--0--0-6-6-0-0-6-0---0-0-6-6-0-0-6-0---------------------------------------------
E--0--0-6-6-0-0-6-0---0-0-6-6-0-0-6-0----------------------------------------------
(I cant be bothered to keep writing the chorus so the above tab is basically repeated in the chorus


Interlude:PALM MUTED THROUGHOUT

E------------------------------------------------------------------
B------------------------------------------------------------------
G-----10-8-7----7-8-10----10-8-7---6-7-9----10-8-7---10-8-7----10-8-7--------------------------
D---0---------0---------0--------0--------0--------0---------0-----------
A-----------------------------------------------------------------
E------------------------------------------------------------------
  keep repeating this part until serj finishes his speech
Comments