System Of A Down - War Correct Chords & Tabs

 

War Correct Chords & Tabs

System Of A Down Chords & Tabs

Version: 1 Type: Tab 2 ratings
1 star 2 stars 3 stars 4 stars 5 stars
comments

War Correct Tab

   
Song= War?
Band= System of a Down
Album= System of a Down
Tabber= Dumpy The Destroyer

I recently used Jason's tab of this song in order to learn it and 
found a few mistakes in the Chorus.  I have corrected this and
explained the tab better. 
PS Jason... Drop C tuning is CGCfad, just a heads up for next time.

x = muted
 = slide
PM = palm mute wherever indicated


Intro
d|-------------------------------------------------------------xxxxxxxx|
a|-------------x---------------x-----------8---8---------------xxxxxxxx|
f|-8-7-8-7-x-x---x-8-7-8-7-x-x---x-8-7-8-7---7---7-8-7-8-7-xxxx---------|
C|----------------------------------------------------------------------|
G|----------------------------------------------------------------------|
C|----------------------------------------------------------------------|
While doing the last muted part start near 15 and slide down as 
you pick, until you reach 1


Chorus
d|--------------------------------------------------------------|
a|--------------------------------------------------------------|
f|---------------------------------------10-------------11------|
C|-0-0-6-0---6---0-0-6-0---8---0-0-6-0---10---0-0-6-0---11------|X2
G|-0-0-6-0---6---0-0-6-0---8---0-0-6-0---8----0-0-6-0---9-------|
C|-0-0-6-0---6---0-0-6-0---8---0-0-6-0--------0-0-6-0-----------|

[ Tab from: http://www.guitartabs.cc/tabs/s/system_of_a_down/war_correct_tab.html ]
Verse                                                       (1)       (2)
d|--------------------------------------------------------|---------|xxxxxxxx|
a|--------------------------------------------------------|---------|xxxxxxxx|
f|--------------------------------------------------------|---------|xxxxxxxx|
C|-1-0-1-0-x-x-x-x-1-0-1-0-x-x-x-x-1-0-1-0-x-x-x-x-1-0-1-0|-5-0-5-0-|---------|
G|-1-0-1-0-x-x-x-x-1-0-1-0-x-x-x-x-1-0-1-0-x-x-x-x-1-0-1-0|-5-0-5-0-|---------|
C|-1-0-1-0-x-x-x-x-1-0-1-0-x-x-x-x-1-0-1-0-x-x-x-x-1-0-1-0|-5-0-5-0-|---------|
  Use the first ending then repeat and use the second


Interlude Part 1
d|-----------------------|
a|-----------------------|
f|-----------------------|
C|-0-12-14-15-0-15-14-12-|  Do this when it is just the guitar
G|-----------------------|
C|-----------------------|
  ===========PM==========


Interlude Part 2
d|------------|
a|------------|
f|------------|
C|-0-15-14-12-|  Do this when Serj speaks
G|------------|
C|------------|
  =====PM=====


Interlude Part 3
d|------------|
a|------------|
f|------------|
C|-0-12-14-15-|  Do this when Serj yells "Destroy it!" 
G|------------|
C|------------|


Interlude Part 4
d|-----------------------|
a|-----------------------|
f|--------------------15-|
C|-0-12-14-15-0-12-14----|  Do this as it builds up to go to the chorus
G|-----------------------|
C|-----------------------|
  ===========PM==========


Chorus Variation
d|-------------------------------------------------------------------|
a|-------------------------------------------------------------------|
f|---------------------------------------------10---------------11---|
C|-0-0-6-0-0-0-6-0-0-0-6-0-0-0-8-0-0-0-6-0-0-0-10-0-0-0-6-0-0-0-11-0-|
G|-0-0-6-0-0-0-6-0-0-0-6-0-0-0-8-0-0-0-6-0-0-0-8--0-0-0-6-0-0-0-9--0-|
C|-0-0-6-0-0-0-6-0-0-0-6-0-0-0-8-0-0-0-6-0-0-0----0-0-0-6-0-0-0----0-|
  ==============================PM===== =======  ======= =======  ===
This is the part at the end where serj says "we will fight the Heathens"
all choppy and funky


End With This
d|------------|
a|------------|
f|------------|
C|-0-0-6-0----|  
G|-0-0-6-0----|
C|-0-0-6-0----|
  =====PM=====


OPEN YOUR EYES, OPEN YOUR MOUTH, CLOSE YOUR HAND AND MAKE A FIST.  
		~System of A Down

               ∂џмрч †нє ∂єς†ґΩчєг		
Comments