System Of A Down - Violent Pornography Chords & Tabs

 

Violent Pornography Chords & Tabs

System Of A Down Chords & Tabs

Version: 4 Type: Tab 0 ratings
1 star 2 stars 3 stars 4 stars 5 stars
comments

Violent Pornography Tab

   
Band: 	System of a Down
Song:	Violent Pornography
Album:	Mezmerize

Tabbed: Richard Strothman
Tuning: Db,Ab,Db,Gb,Bb,Eb

Use your own rythm do decide how many times to play the notes
I'm only posting which notes to play, not exact number of times
to play them.

Intro: Overdriven Tone
Eb----------------------------------------------I
Bb----------------------------------------------I
Gb----------------------------------------7-----I
Db----4---5-7----8--7--5--8--7--5--4^--8-----8--I x2
Ab----------------------------------------------I
Db--0-------------------------------------------I


(Everybody...)
Eb--------------------------------------I
Bb--------------------------------------I
Gb--------------------------------------I
Db--7--8------8--9------9--8------8--7--I x2
Ab--5--6------6--7------7--6------6--5--I
Db--------------------------------------I
(Something sounds wrong about this but 
this is how most people would tab it)  


Full Distortion:
Eb-------------------------------------------------------I
Bb-------------------------------------------------------I
Gb-------------------------------------------------------I
Db-10\-0-0--0--0-0-0-0-0--0--0-0--0-0--0--0--0--1--3--4--I
Ab-10\-0-0--0--0-0-0-0-0--0--0-0--0-0--0--0--0--1--3--4--I
Db-10\-0-0--0--0-0-0-0-0--0--0-0--0-0--0--0--0--1--3--4--I
      pm-/     pm------/     pm-----/     pm-/

Eb----------------------------------------------------I
Bb----------------------------------------------------I
Gb----------------------------------------------------I
Db--0-0--0--0-0-0-0-0--0--0-0--0-0--0--0--0--4--3--1--I
Ab--0-0--0--0-0-0-0-0--0--0-0--0-0--0--0--0--4--3--1--I
Db--0-0--0--0-0-0-0-0--0--0-0--0-0--0--0--0--4--3--1--I
 pm---/     pm------/     pm-----/     pm-/

Eb----------------------------------------------------I
Bb----------------------------------------------------I
Gb----------------------------------------------------I
Db--0-0-0-0--0----0-0-0-0--0----0-0-0-0--0---1--3--4--I
Ab--0-0-0-0--0----0-0-0-0--0----0-0-0-0--0---1--3--4--I
Db--0-0-0-0--0----0-0-0-0--0----0-0-0-0--0---1--3--4--I
    pm----/       pm----/       pm----/  

Eb-----------------------------------------------------I
Bb-----------------------------------------------------I
Gb-----------------------------------------------------I
Db--0-0-0-0-0-0--0--0-0-0-0-0-0--0--0-0-0-0--0---4--3--I
Ab--0-0-0-0-0-0--0--0-0-0-0-0-0--0--0-0-0-0--0---4--3--I
Db--0-0-0-0-0-0--0--0-0-0-0-0-0--0--0-0-0-0--0---4--3--I
    pm-------/      pm-------/       pm----/   


(Everybody...)
Overdriven Tone
Eb--------------------------------------I
Bb--------------------------------------I
Gb--------------------------------------I
Db--7--8------8--9------9--8------8--7--I x2
Ab--5--6------6--7------7--6------6--5--I
Db--------------------------------------I


Full Distortion:
Eb-------------------------------------------------------I
Bb-------------------------------------------------------I
Gb-------------------------------------------------------I
Db-10\-0-0--0--0-0-0-0-0--0--0-0--0-0--0--0--0--1--3--4--I
Ab-10\-0-0--0--0-0-0-0-0--0--0-0--0-0--0--0--0--1--3--4--I
Db-10\-0-0--0--0-0-0-0-0--0--0-0--0-0--0--0--0--1--3--4--I
      pm-/     pm------/     pm-----/     pm-/

Eb----------------------------------------------------I
Bb----------------------------------------------------I
Gb----------------------------------------------------I
Db--0-0--0--0-0-0-0-0--0--0-0--0-0--0--0--0--4--3--1--I
Ab--0-0--0--0-0-0-0-0--0--0-0--0-0--0--0--0--4--3--1--I
Db--0-0--0--0-0-0-0-0--0--0-0--0-0--0--0--0--4--3--1--I
 pm---/     pm------/     pm-----/     pm-/

Eb----------------------------------------------------I
Bb----------------------------------------------------I
Gb----------------------------------------------------I
Db--0-0-0-0--0----0-0-0-0--0----0-0-0-0--0---1--3--4--I
Ab--0-0-0-0--0----0-0-0-0--0----0-0-0-0--0---1--3--4--I
Db--0-0-0-0--0----0-0-0-0--0----0-0-0-0--0---1--3--4--I
    pm----/       pm----/       pm----/  
[ Tab from: http://www.guitartabs.cc/tabs/s/system_of_a_down/violent_pornography_tab_ver_4.html ]
Eb--------------------------------------------------------I
Bb--------------------------------------------------------I
Gb--------------------------------------------------------I
Db--0-0-0-0-0-0--0--0-0-0-0-0-0--0--0-0-0-0--0---4--3--1--I
Ab--0-0-0-0-0-0--0--0-0-0-0-0-0--0--0-0-0-0--0---4--3--1--I
Db--0-0-0-0-0-0--0--0-0-0-0-0-0--0--0-0-0-0--0---4--3--1--I
    pm-------/      pm-------/       pm----/



(It's a violent...)
Eb-----------------------------------I
Bb-----------------------------------I
Gb-----------------------------------I
Db--0---4---5---7---8---10---12---8--I Let Ring
Ab--0---4---5---7---8---10---12---8--I
Db--0---4---5---7---8---10---12---8--I

Play each "chord" 7 times 
while palm muting the six repeats.
Eb-----------------------------------I
Bb-----------------------------------I
Gb-----------------------------------I
Db--0---4---5---7---8---10---12---8--I
Ab--0---4---5---7---8---10---12---8--I
Db--0---4---5---7---8---10---12---8--I


(Everybody...)
Overdriven Tone
Eb--------------------------------------I
Bb--------------------------------------I
Gb--------------------------------------I
Db--7--8------8--9------9--8------8--7--I x2
Ab--5--6------6--7------7--6------6--5--I
Db--------------------------------------I


Full Distortion:
Eb-------------------------------------------------------I
Bb-------------------------------------------------------I
Gb-------------------------------------------------------I
Db-10\-0-0--0--0-0-0-0-0--0--0-0--0-0--0--0--0--1--3--4--I
Ab-10\-0-0--0--0-0-0-0-0--0--0-0--0-0--0--0--0--1--3--4--I
Db-10\-0-0--0--0-0-0-0-0--0--0-0--0-0--0--0--0--1--3--4--I
      pm-/     pm------/     pm-----/     pm-/

Eb----------------------------------------------------I
Bb----------------------------------------------------I
Gb----------------------------------------------------I
Db--0-0--0--0-0-0-0-0--0--0-0--0-0--0--0--0--4--3--1--I
Ab--0-0--0--0-0-0-0-0--0--0-0--0-0--0--0--0--4--3--1--I
Db--0-0--0--0-0-0-0-0--0--0-0--0-0--0--0--0--4--3--1--I
 pm---/     pm------/     pm-----/     pm-/

Eb----------------------------------------------------I
Bb----------------------------------------------------I
Gb----------------------------------------------------I
Db--0-0-0-0--0----0-0-0-0--0----0-0-0-0--0---1--3--4--I
Ab--0-0-0-0--0----0-0-0-0--0----0-0-0-0--0---1--3--4--I
Db--0-0-0-0--0----0-0-0-0--0----0-0-0-0--0---1--3--4--I
    pm----/       pm----/       pm----/  

Eb--------------------------------------------------------I
Bb--------------------------------------------------------I
Gb--------------------------------------------------------I
Db--0-0-0-0-0-0--0--0-0-0-0-0-0--0--0-0-0-0--0---4--3--1--I
Ab--0-0-0-0-0-0--0--0-0-0-0-0-0--0--0-0-0-0--0---4--3--1--I
Db--0-0-0-0-0-0--0--0-0-0-0-0-0--0--0-0-0-0--0---4--3--1--I
    pm-------/      pm-------/       pm----/



Phaser of some sort, overdriven.
Eb-----------------------------------I
Bb-----------------------------------I
Gb-----------------------------------I
Db--0---4---5---7---8---10---12---8--I x2
Ab--0---4---5---7---8---10---12---8--I
Db--0---4---5---7---8---10---12---8--I


Play each "chord" 7 times 
while palm muting the six repeats.
Eb-----------------------------------I
Bb-----------------------------------I
Gb-----------------------------------I
Db--0---4---5---7---8---10---12---8--I
Ab--0---4---5---7---8---10---12---8--I
Db--0---4---5---7---8---10---12---8--I


Eb-----------------------------------------------I
Bb-----------------------------------------------I
Gb-----------------------------------------------I
Db--0---4---5---7---8---10---12\---8/---12\---8--I Let Ring
Ab--0---4---5---7---8---10---12\---8/---12\---8--I
Db--0---4---5---7---8---10---12\---8/---12\---8--I


Outro:
Eb----------------------------------------------I    I---I
Bb----------------------------------------------I    I---I
Gb----------------------------------------7-----I    I---I
Db----4---5-7----8--7--5--8--7--5--4^--8-----8--I x2 I---I Let Ring
Ab----------------------------------------------I    I---I
Db--0-------------------------------------------I    I-0-I

END
Comments