System Of A Down - Violent Pornography Chords & Tabs

 

Violent Pornography Chords & Tabs

System Of A Down Chords & Tabs

Version: 1 Type: Tab 33 ratings
1 star 2 stars 3 stars 4 stars 5 stars
comments

Violent Pornography Tab

Band: System of a Down
Album: Mesmerize
Song: Violent Pornography
Transcribed By: Shane Gavin
Email: shanegavin100@hotmail.com
Drop C (CGCFAD) 

Intro/Outro
|----------------------------------------|
|----------------------------------------|
|---------------------------------7~-----|
|-----4-5-7~~-8-7-5-8-7-5------8~----8~--|
|--------------------------9b------------|
|--0~~~~---------------------------------|

Verses
|----------------------|
|----------------------|
|----------------------|
|--0-1--1-2--2-1--1-0--|
|--0-1--1-2--2-1--1-0--|
|----------------------|

|------------------------------------|
|------------------------------------|
|------------------------------------|
|--0-0-1-0--0-0-1-0--0-0-1-0--0-1-4--|
|--0-0-1-0--0-0-1-0--0-0-1-0--0-1-4--|
|--0-0-1-0--0-0-1-0--0-0-1-0--0-1-4--|
[ Tab from: http://www.guitartabs.cc/tabs/s/system_of_a_down/violent_pornography_tab.html ]
|------------------------------------|
|------------------------------------|
|------------------------------------|
|--0-0-1-0--0-0-1-0--0-0-1-0--4-1-0--|
|--0-0-1-0--0-0-1-0--0-0-1-0--4-1-0--|
|--0-0-1-0--0-0-1-0--0-0-1-0--4-1-0--|

|------------------------------------|
|------------------------------------|
|------------------------------------|
|--0-0-1----0-0-1----0-0-1----0-1-4--|
|--0-0-1----0-0-1----0-0-1----0-1-4--|
|--0-0-1----0-0-1----0-0-1----0-1-4--|


|------------------------------------|
|------------------------------------|
|------------------------------------|
|--0-1-0--0-1-0--0-1-0--0-1-0-4-1-0--|
|--0-1-0--0-1-0--0-1-0--0-1-0-4-1-0--|
|--0-1-0--0-1-0--0-1-0--0-1-0-4-1-0--|

Chorus(sometimes palm muted)

|---------------------------|
|---------------------------|
|---------------------------|
|--0--4--5--7--8--10--0--8--|
|--0--4--5--7--8--10--0--8--|
|--0--4--5--7--8--10--0--8--|

This is pretty rough the album has only been out since Friday.Ireland gets albums early for some reason,anyway
please rate this any comments etc e-mail me shanegavin100@hotmail.com hope you enjoy the tab.

Comments