System Of A Down - Violent Pornography Chords & Tabs

 

Violent Pornography Chords & Tabs

System Of A Down Chords & Tabs

Version: 1 Type: Bass Tab 0 ratings
1 star 2 stars 3 stars 4 stars 5 stars
comments

Violent Pornography Bass Tab

System Of A Down
Violent Pornography
Mesmerize (2005)
Bass Tabs

__________________________


Intro
|--------------------|
|--------------------|
|--------------------|
|--0--1--2--3--4--5--|   x2


=>Follow the guitar

Part I

|-------------------------|
|-------------------------|
|--5-6---6-7---7-6---6-5--|
|-------------------------|


Interlude
|--------------------------------------|
|--------------------------------------|
|--------------------------------------|
|---00-0--00-000-0--00-000-0--00-1-4---|

|--------------------------------------|
|--------------------------------------|
|--------------------------------------|
|---00-0--00-000-0--00-000-0--00-4-2---|

|-----------------------------------------|
|-----------------------------------------|
|-----------------------------------------|
|---00-0--00-000-0--00-000-0--00-1-3--4---|
[ Tab from: http://www.guitartabs.cc/tabs/s/system_of_a_down/violent_pornography_btab.html ]
|--------------------------------------|
|--------------------------------------|
|--------------------------------------|
|---00-0--00-000-0--00-000-0--00-1-4---|

Chorus

|------------------------------|
|------------------------------|
|------------------------------|
|--0--4--5--7--9--10--12--8----|    x2

|----------------------------------------------------------------------------------------|
|----------------------------------------------------------------------------------------|
|----------------------------------------------------------------------------------------|
|-00000000-44444444-55555555-77777777-99999999-1010101010101010-1212121212121212-88888888|

|------------------------------|
|------------------------------|
|------------------------------|
|--0--4--5--7--9--10--12--8----| 

Outro
|--------------------|
|--------------------|
|--------------------|
|--0--1--2--3--4--5--|   x2

____________________________

Tabbed by KoRnichon` : Naheulbeuk_Dwarf@hotmail.com
Comments