System Of A Down - Vicinity Of Obscenity Chords & Tabs

 

Vicinity Of Obscenity Chords & Tabs

System Of A Down Chords & Tabs

Version: 1 Type: Bass Tab

Vicinity Of Obscenity Bass Tab

Tuning is Drop Db (Dd Ab Db Gb)

there is no bass in the intro.

main riff:

Gb|-------------------------------------|
Db|-------------------------------------|
Ab|-------------------------------------|
Db|--0-6-8-6-0-5-6-5-0-6-8-6-3-5-6-5----|

Repeat this a few times.

No bass during "banana banana banana terracotta" etc part.

do the main riff for the "is ther a perfect way of holding you baby?" bit.

During the HEAVY "banana banana banana banana terracotta" bit you play...
[ Tab from: http://www.guitartabs.cc/tabs/s/system_of_a_down/vicinity_of_obscenity_btab.html ]
Gb|--------------------------------------|
Db|--------------------------------------|
Ab|-----------------------------5-4------|
Db|--4-6-7--4-6-7--4-6-7--4-6-7-----7-6--|

Gb|--------------------------------------|
Db|--------------------------------------|
Ab|--------5-4-----5-4-------------------|
Db|--4-6-7-----7-6-----7-6-4-------------|


The "do we all, learn defeat" bit goes like this:

Gb|------------------------------------|
Db|------------------------------------|
Ab|------------------------------------|
Db|--5--7--9~~--9--7--5~~--------------|

and you just play dat a few times.