System Of A Down - Version Chords & Tabs

 

Version Chords & Tabs

System Of A Down Chords & Tabs

Version: 1 Type: Tab 0 ratings
1 star 2 stars 3 stars 4 stars 5 stars
comments

Version Tab

   
Artist: System Of A Down 
Album: Toxicity
Song: Version 7.0                                           Song Map
Tabbed By Greg Hennessey (kelvar@home.com)                                         
                                                            Part 1A
Tuning: Drop C (CGCFAD)                                     Part 2
                                                            Part 3 x2
Part 1A                                                     Part 4
D|--------------------------------------------------|       Part 3 
A|--------------------------------------------------|     
F|---14--14--14--14--14--14--17--17--17--17--17--17-|       Part 1A
C|-12--12--12--12--12--12--15--15--15--15--15--15---|       Part 2
G|--------------------------------------------------|       Part 1B
C|--------------------------------------------------|       Part 2
                                                            Part 1B
Part 1B                                                     Part 2
D|----------------------------------------------|    
A|-------------------------------17--18--17-----|           Part 3 x2 
F|---14--14--14--14--14--14--17----17--17--17---|           Part 4
C|-12--12--12--12--12--12--15--15----15--15--15-|           Part 3
G|----------------------------------------------|    
C|----------------------------------------------|           Part 1A
                                                            Part 2
Part 2                                                      Part 1B
D|-------------------------------------------------------|  Part 2   
A|-------------------------------------------------------|  Part 1B   
F|---14--14--14--15--15-14--14--17--19--19-17--17-15--15-|  Part 2  
C|-12--12--12------12-----12--15--15--15-----15-----12---|     
G|-------------------------------------------------------|  Part 3 x2   
C|-------------------------------------------------------|  Part 4
                                                            Part 3
Part 3                                                     
D|------------------------------|                           Part 5A x4
A|------------------------------|                           Part 5B x7
F|------------------------------|                           Part 5C x4
C|-0----3-2-0-3-0----8-88-7-77--|                           Part 5B x7
G|-0----3-2-0-3-0----8-88-7-77--|                     
C|-0----3-2-0-3-0----8-88-7-77--|                           Part 3 x2
                                                            Part 4
Part 4                                                      Part 3
D|--------------------------------|          
A|--------------------------------|                         Part 5B x7
F|--------------------------------|                         part 5C x4
C|-320300-320300-320300-8-88-7-77-|
G|-320300-320300-320300-8-88-7-77-|
C|-320300-320300-320300-8-88-7-77-|
  

Part 5A                 Part 5B     Part 5C
D|--------------------|---------|------------------|
A|--------------------|---------|------------------|
F|--------------------|---------|------------------|
C|--------------------|-3000000-|------------------|
G|--5-5-555-/8-0-0-7~-|-3000000-|------------------|
C|--------------------|-3000000-|-0-0-000-2-0-0-1~-|
                         


[ Tab from: http://www.guitartabs.cc/tabs/s/system_of_a_down/version_tab.html ]
Comments